My Little Pony - We Are The Cutie Mark Crusaders (Acordes)

Misc Unsigned Bands

Subida por Sergio2121

Compartir


Imprimir FAQ
+A
-A

Texto

Desplazamiento

Transportador

Color de Fondo

Archivos

-A
+A
We Are The Cutie Mark Crusaders

Look here are three little ponies
Ready to sing for this crowd
Listen up, cause here's our story

(0:21) We're gonna sing it VERY LOOOUD! (distortion)
eb|--------------------------------------------------|
Bb|-----12~------------------------------------------|
Gb|------------------------------------------11--12--|
Db|--------------------------------------------------|
Ab|--------------------------------------------------|
Eb|--------------------------------------------------|

eb|--------------------------------------------------|
Bb|--------------------------------------------------|
Gb|--14--12--11------12--11----------11--------------|
Db|--------------14----------14--12------14--12--11--|
Ab|--------------------------------------------------|
Eb|--------------------------------------------------|

eb|--------------------------------------------------|
Bb|--------------------------------------------------|
Gb|--------------------------------------------------|
Db|14--12--11--9--7------------7h9-------------------|
Ab|---------------------------------7-----------7----|
Eb|--------------------------------------------------|

eb|--------------------------------------------------|
Bb|-----~--------------------------------------------|
Gb|----------------6---7---9----9b11r9p7-------------|
Db|-------7---9----------------------------9---------|
Ab|--9-----------------------------------------------|
Eb|--------------------------------------------------|

[Verse Chords:]
Bm
When you're a younger pony
A
And your flank is very bare
G
Feels like the sun will never come
F#
When your cutie mark's not there

(0:42)(Lil Guitar Fill) (Distortion)
eb|----7--9--10--9-----------------------------------|
Bb|-----------------7--------------------------------|
Gb|--------------------------------------------------|
Db|--------------------------------------------------|
Ab|--------------------------------------------------|
Eb|--------------------------------------------------|

Bm
So the three of us FIGHT the FIGHT!
A
There is nothing that we fear
G
We'll have to figure out what we'll do next
F#m                       A
'Till our cutie marks are here!

[Chorus]
Bm                   E         F#
       We are the cutie mark crusaders!
                       A
       On a quest to find out who we are!
Bm                   E              F#
       And we will never stop the journey!
             A
       Not until we have our cutie marks!

(1:12) Solo 2 (distortion)
eb|-------------------------------------------------------------|
Bb|--------16p14--------16p14------16p14------16p14-------------|
Gb|---14h16------16p14-------16p14------16p14-------16p14-------|
Db|-------------------------------------------------------------|
Ab|-------------------------------------------------------------|
Eb|-------------------------------------------------------------|

eb|---------------------------------------------------------|
Bb|-------------------16p14------16p14------16p14-----------|
Gb|--16h117p16--4----------16p14------16p14------16p14------|
Db|---------------------------------------------------------|
Ab|---------------------------------------------------------|
Eb----------------------------------------------------------|

eb|----------------------------------------------------|
Bb|--------------------------14--15---14h15p14---------|
Gb|------14--------------16---------------------14-----|
Db|----------------------------------------------------|
Ab|----------------------------------------------------|
Eb|----------------------------------------------------|

eb|--------------------------------------------------|
Bb|------17-------------------19b21r19---------------|
Gb|--------------------------------------------------|
Db|--------------------------------------------------|
Ab|--------------------------------------------------|
Eb|--------------------------------------------------|

[Verse 2:]
Bm
They all say when you get your mark
A
When the time is really right
G
And you know just what you're supposed to do
F#
And your talent comes to light
Bm
But it's not as easy as it sounds
A
And that waiting's hard to do
G
So we test our talents everywhere
F#
Until our face is blue!

[Chorus]
Bm                 E             F#
       We are the cutie mark crusaders!
                       A
       On a quest to find out who we are!
Bm                   E              F#
       And we will never stop the journey!
                     A
       Not until we have our cutie marks!

(Final Lil Guitar)
eb|---12b14--12b14------------------14b15r14p12--12----|
Bb|----------------------------------------------------|
Gb|----------------------------------------------------|
Db|----------------------------------------------------|
Ab|----------------------------------------------------|
Eb|----------------------------------------------------|

We are the cutie mark crusaders

eb|---------9--------------9--10--9------------------|
Bb|----10-----------------------------7--------------|
Gb|--------------------------------------------------|
Db|--------------------------------------------------|
Ab|--------------------------------------------------|
Eb|--------------------------------------------------|

On a quest to find out who we are
eb|------------------------------17---15---14---12---|
Bb|--------------------------------------------------|
Gb|--------------------------------------------------|
Db|--------------------------------------------------|
Ab|--------------------------------------------------|
Eb|--------------------------------------------------|
And we will never stop our journey

************************************

| b  Bend
| ~  Vibrato
| h  Hammer-on
| p  Pull-off
| r  Release

************************************

Video Clip de My Little Pony - We Are The Cutie Mark Crusaders


ACORDES PARA GUITARRA

PIANO UKELELE
Bm
A
G
F#
F#m
E


TOP 20: Las más tocadas de Misc Unsigned Bands


Acordes

Cerrar
Bm
A
G
F#
F#m
E

22.05

x

231