A Realization Of How Its Always Been
Moneen
Acordes

Subida por NicolasRodas
Álbum: The Theory of Harmonial Value ( 2001)



Cambiar Cifrado
Americano Latino

Cambiar Tonalidad
-1 +1

Partir Pantalla Imprimir FAQ

+A
-A



e|---12---|
b|-----12-|
g|--7-----|
d|-7------|
a|--------|
e|--------|
Play harmonics 8x


guitar 2:
comes in at 4th time
e|-------|
b|77-----|
g|-------|
d|-------|
a|-------|
e|-------|
play harmonic twice at beggining of each bar



e|------------------------0-0---0-0---0-0---0-0--|
b|-0-0---0-0---0-0---0-0-5-5-5-3-3-3-1-1-1-1-1-1-|
g|5-5-5-4-4-4-0-0-0-0-0-0------------------------|
d|-----------------------------------------------|
a|-----------------------------------------------|
e|-----------------------------------------------|
play 2x



1.
e|-----------------------|
b|-----------------------|
g|12-14-16-12-12-12-11-7-|
d|x--x--x--x--x--x--x--x-|
a|10-12-14-10-9--10-9--5-|
e|-----------------------|
play 2x

2.
e|-----------------------------|
b|-----------------------------|
g|14-16-12-14-16-12-14-16-11-7-|
d|x--x--x--x--x--x--x--x--x--x-|
a|12-14-10-12-14-10-12-14-9--5-|
e|-----------------------------|
play 2x

3.
e|--------------------------------|
b|--------------------------------|
g|-------------------------7------|
d|5-5-4-5-5-5-4-5-5-5-4-5-9-9-7-9-|
a|--------------------------------|
e|--------------------------------|
pm-----------------------|
play 4x

4.
e|------------------------|
b|------------------------|
g|11/12-11/12-11/12-14-16-|
d|x--x--x--x--x--x--x--x--|
a|9-/10-9-/10-9-/10-12-14-|
e|------------------------|



play 1:2x
play 2:2x


play 3:11x
on 5th time guitar 2:
e|---------|
b|---------|
g|--7------|
d|-9-9-7-9-|
a|---------|
e|---------|


play 1:2x
play 2:2x



guitar 1:
e|------------|
b|------------|
g|------------|
d|------------|
a|2-3---7-5-3-|
e|---3b-------|


guitar 2:
e|------------------|
b|--------12-10-----|
g|-----12b------12--|
d|9-10--------------|
a|------------------|
e|------------------|

e|------0------|
b|---3---3-3---|
g|-0--0---0-0--|
d|0-0--0-----0-|
a|-------------|
e|-------------|

e|---12---|
b|-----12-|
g|--7-----|
d|-7------|
a|--------|
e|--------|

ACORDES PARA GUITARRA

PIANO UKELELE


COMENTARIOS

Aún no hay comentarios,

¡escribe el primero!

Escribe una pregunta, duda o comentario sobre esta canción, te responderemos a la brevedad.

Las más tocadas de Moneen

Toca una Canción al Azar de Moneen