Youre So Wonderful You Should Live In A Castle (Acordes)

Mr Seley

Subida por Josep

Compartir


Imprimir FAQ
+A
-A

Texto

Desplazamiento

Transportador

Color de Fondo

Archivos

-A
+A
You’re So Wonderful (You Should Live In A Castle)

By: Tom Seley

            E
You’re so wonderful
                       A
You should live in a castle
                        B
But I’m sure that the taxes
                       E
Would be a great big hassle
                           E
So you’d move to a small house
                  A
To be a bit more comfortable
               B
But no matter where you lay your head.
                      E
I still think you’re wonderful

E                    A
Hey there, look who rolled in
         B                                E
You have no idea what kinda cards you’re holdin’
        E                               A
I hope all your chances turn out to be golden
B                                             E
You might think you’re cool, but I think you’re frozen

Chorus

I don’t know if you know that you’re made of star dust
Whether your ridin’ in a limosine or the city bus
You just do your thing and you’re not one to make a fuss
And when it comes to being kind, I think you’re a genuis

Chorus

The laughter echos round from all the joy you bring
And on the weekends, I’m sure you take time out to teach the birds to sing
You’d help out anyone with just about anything
This song goes out to all the kids that do their own thing

Chorus

            E
You’re so wonderful (who me?)
                        A
You should live in a castle (which one?)
                       B
But I’m sure that the taxes
                       E
Would be a great big hassle (oh no!)
So you’d move to a small house (why’s that?)
To be a bit more comfortable (sounds good!)
But no matter where you lay your head.
I still think you’re wonderful (yee ha!)

Solo section
1st & 2nd Measure [Over the E and A Chords]
e|--------------------------------------------------------------------------|
B|---------------------------------9b10p7-----------------------------------|
G|---------------------------------9b10p7---7-------------------------------|
D|-----7--9-9-9p7---7~~~~~~---------------9---9p7---7---9p7---7-------------|
A|-7/9-------------9------------------------------9---------9---------------|
E|--------------------------------------------------------------------------|

3rd and 4th Measure [Over the B and E Chord]
e|---------------------------15-12-15-12------------------------------------|
B|---------------------------------------15-12-15-12------------------------|
G|---------------------------------------------------14-12-14-12--14-14-14b-|
D|-----12--14-14-14p12---14\------------------------------------------------|
A|-/14-----------------14---------------------------------------------------|
E|--------------------------------------------------------------------------|

5th and 6th Measure [Over the E and A Chords]
e|--------------------------------------------------------------------------|
B|-14b-14b-14p12---------------------------15-14-12-14-12-14-12\------------|
G|-14b-14b-14p12----12---------------------14-14-12-14-12-14-12\------------|
D|---------------14----14p12----12------------------------------------------|
A|---------------------------14---------------------------------------------|
E|--------------------------------------------------------------------------|

7th and 8th Measure [Over the B and E Chords]
e|--------------------------------------------------------------------------|
B|--------------------------------------------------------------------------|
G|-----12-14-14b15p12----12-------------------------------------------------|
D|-/14----------------14----14p12----12—14p12----12----------14-12-14-14~~~-|
A|--------------------------------14----------14-----12h13h14---------------|
E|--------------------------------------------------------------------------|



     E
You’re so wonderful (who me?)
                      A
You should live in a castle (which one?)
                       B
But I’m sure that the taxes
                      E
Would be a great big hassle (oh no!)
So you’d move to a small house (why’s that?)
To be a bit more comfortable (sounds good!)
But no matter where you lay your head.
I still think you’re wonderful (yee ha!)

HERRAMIENTAS ACORDESWEB:


LETRA DE LA CANCIÓN:

Ver la letra sola (sin acordes)

DESCARGAR PDF / IMPRIMIR CANCIÓN



ACORDES PARA GUITARRA

PIANO UKELELE
E
A
B


TOP 20: Las más tocadas de Mr Seley


Toca una Canción al Azar de Mr Seley

Acordes

Cerrar
E
A
B

11.41


291