Agradecimiento

Nehemías Lemus

Acordes

Subida por Fernando


Más Versiones
Ver. 2 Ver. 3

Cambiar Cifrado
Americano Latino

Cambiar Tonalidad
-1 +1

Partir Pantalla Imprimir FAQ

+A
-A
SALUDOS HERMANOS DESDE EL SALVADOR, AQUIE ESTAN LOS
ACORDES DE ESTE TEMA, ESTAN SENCILLOS Y ESPERO SEAN DE
MUCHA BENDICION PARA USTEDES.

Intro:
E B7
G)------------------------------------------
B)----------------12-----9-10-12-10-9-12----
e)-12-11-12-11-10---------------------------

F#m B7 E
G)-----------------------11-11-11-----------
B)-----------------10-----------------12----
e)-12-11-12-11-10-----------------9-9-------

E7 A
G)------------------------------------------
B)----------------12------------------------
e)-12-11-12-11-10--------12-12-14-12-12-9---

E B7 E Em
G)--------------------------------------------
B)------------------12----12-12--------12-----
e)-9-12-11-12-11-9--------------9-11-9----12--


Em B7 Em
Al meditar Dios mío en las cosas que me has dado
E7 Am
Mi corazón se inflama turbado de emoción.
Em
Que no encuentro palabras con que expresar mi Cristo
B7 Em
el agradecimiento de mi alma para ti.


Em B7 Em
Cambiaste tú mi vida, y me diste esperanza
E7 Am
y desde aquel instante mi alma recibió
Em
un gozo tan sublime, que al correr de los años
B7 Em
ha sido cual la fuente de mi alma para ti.


Coro:
E B7
Agradecimiento hay en mi corazón
F#m B7 E
canto de alegría elevo con mi voz.
E7 A
Muchas son las cosas que mi Dios me ha dado
E B7 E
y en agradecimiento, y en agradecimiento le sirvo sólo a él.


(se repite el intro)

Em B7 Em
A veces que las pruebas que has puesto en mi vida
E7 Am
en vez de ser derrotas han sido bendición.
Em
Pues ni por un momento tú me has dejado solo
B7 Em
y así tu santa mano ha sido mi sostén.
Em B7 Em
Permite que mi vida yo ponga por servirte,
E7 Am
que dentro de mi mente presente siempre estén
Em
los múltiples favores, y tus misericordias.
B7 Em
Que ya sin merecerlo tuviste para mí.


Coro:
E B7
Agradecimiento hay en mi corazón
F#m B7 E
canto de alegría elevo con mi voz.
E7 A
Muchas son las cosas que mi Dios me ha dado
E B7 E A E
y en agradecimiento, y en agradecimiento le doy mi corazón.


NUEVO FORO DE MÚSICA

¿Tienes alguna duda, consulta, pregunta, consejo o algo para compartir sobre esta canción?

¡Puedes abrir un hilo en el FORO para que la comunidad te ayude! Hacer una pregunta

ACORDES PARA GUITARRA

PIANO UKELELE
E
B7
G
F#m
B
E7
A
Em
Am


Las más tocadas de Nehemías Lemus

E
B7
G
F#m
B
E7
A
Em
Am