Idiota

Nena Daconte

Acordes

Subida por Eliel040


Más Versiones
Ver. 2 Ver. 3 Ver. 4

Cambiar Cifrado
Americano Latino

Cambiar Tonalidad
-1 +1

Partir Pantalla Imprimir FAQ

+A
-A


Ver solo la LETRA
CANCION: Idiota
CANTANTE: Nena Daconte
ALBUM: He perdido loszapatos.




TAB transcrita por: Alvaro Blanco Cobián (León, España)
[email protected]

29/03/2006

***************************************************************
Los acordes de la canción corresponden a la típico giro
DO, SOL, LA menor, FA.
No es difícil pillarle el punto, sólo que al principio se pasa
cantando sobre la nota Do hasta que empieza el estribillo.

***************************************************************


******** Al comienzo de la canción se toca una sola cuerda que
******** corresponde a un Do, por tanto:

******** Repetir esta nota en toda esta parte:

G|-------------------------------------------------------------|
D|-------------------------------------------------------------|
A|--3--3--3--3--3--3--3--3--3--3--3--3--3--3--3--3--3--3-------|
E|-------------------------------------------------------------|


Ya está ahí la luna.
Qué perra la vida y esta soledad.

No quisiera perderme tu tren
y saber lo que es malgastarte.
Podría coger cualquier autobús
con tal de un beso más,
pero tengo pesado el hogar
y ya no puedo hacerlo igual.
Puede que mañana me quiera ir.
Y puede también que mañana sea la vida
y que mañana, no exista mañana.


******** ESTRIBILLO: al llegar aquí ya suenan los cuatro
*********************acordes que se repiten en la canción

C G Am F
G|-------------------------------------------------------------------|
D|----------------------0-------------------2-----------------3------|
A|----3--------------------------------------------------------------|
E|-------------------------------------------------------------------|
No soy una niña. No soy ese duende. No soy luchadora. No soy tu camino.


C G Am F
G|-------------------------------------------------------------------|
D|----------------------0-------------------2-----------------3------|
A|----3--------------------------------------------------------------|
E|-------------------------------------------------------------------|
No soy buena amante,ni soy buena esposa.No soy una flor,ni un trozo de pan.



********** Se repite esta estructura en gran parte de la canción,
********** pero para que suene más completa queda mejor
********** empezar a rellenar con punteo sobre los acordes,
********** que son siempre C G Am F


C G Am F
Sólo soy esa cara de idiota

C G Am F
idiota


C G
Idiota por tener que recordar la última vez

Am F
que te pedí tu amor.

C G
Idiota por colgar tus besos con un marco rojo

Am F
por si ya no vuelvo a verlos más.

C G Am F
Idiota por perderme por si acaso te marchabas ya, y


C G Am F
tirar tu confianza desde mi cama hasta esa ventana.


C G
No ves qué fácil ha sido para mí
Am F
perderlo todo en un momento.

C G
Por mi miedo a perder, Por mi miedo a perder,
Am F
por mi miedo a no controlar tu vuelo.


C G
No soy una niña. No soy ese duende.

Am F
No soy luchadora. No soy tu camino.

C G
No soy buena amante, ni soy buena esposa.

Am F
No soy una flor, ni un trozo de pan.


C G Am F
Sólo soy esa cara de idiota

C G Am F
idiota esa cara de idiota


C G
No ves qué fácil ha sido para mí
Am F
perderlo todo en un momento.



**************
*^********** Eso es todo, sugerencias, comentarios o
************correcciones a mi e mail: [email protected]


NUEVO FORO DE MÚSICA

¿Tienes alguna duda, consulta, pregunta, consejo o algo para compartir sobre esta canción?

¡Puedes abrir un hilo en el FORO para que la comunidad te ayude! Hacer una pregunta

ACORDES PARA GUITARRA

PIANO UKELELE
C
G
A
F
C
G
Am
F


Las más tocadas de Nena Daconte

C
G
A
F
C
G
Am
F