Señal del metal

Nepal

Acordes

Subida por kaoskie


Más Versiones
Ver. 2

Cambiar Cifrado
Americano Latino

Cambiar Tonalidad
-1 +1

Partir Pantalla Imprimir FAQ

+A
-A
e|----------------------------------------|
B|----------------------------------------|
G|----------------------------------------| x2 (La segunda parte termina asi)
D|--12/9------7/9------12/9------5/7------| D|-3-4-|
A|--10/7------5/7------10/7------3/5------| A|-1-2-|
E|-------0000-----0000-----0000------0000-|


e|------------------------------------|
B|------------------------------------|
G|------------------------------------|
D|------------------------------5/7---|
A|-10p7------5p7------10p7------3/5---|
E|------0000-----0000------0000-------|


e|------------------------------------|
B|------------------------------------|
G|------------------------------------|
D|------------------------------3/4---|
A|-10p7------5p7------10p7------1/2---|
E|------0000-----0000------0000-------|


e|-----------------------------------|
B|-----------------------------------|
G|-----------------------------------|
D|-7/9---------9-9--------5-5-4-x----|
A|-5/7---------7-7--------3-3-2-x----|
E|-----0-0---------0000--------------|


e|------------------------------------------|
B|------------------------------------------|
G|------------------------------------------|
D|-7/9---------9-9------12-12-11---12/7-----|
A|-5/7---------7-7------10-10-9----10/5-----|
E|-----0-0---------0000---------------------|


e|------------------------------------------|
B|------------------------------------------|
G|------------------------------------------|
D|-7/9---------9-9------5-5-4-x-------------|
A|-5/7---------7-7------3-3-2-x-------------|
E|-----0-0---------0000---------------------|


h-h-h(Harmonico)
e|------------------------------------------|
B|------------------------------------------|
G|-----------------------------------7------|
D|-7/9---------9-9------12-12-11---7---7----|
A|-5/7---------7-7------10-10-9-------------|
E|-----0-0---------0000---------------------|



e|-------------------------------------------|
B|-------------------------------------------|
G|-------------------------------------------|
D|-----------9-9-----5-5-4-x-----------------|
A|--------77-7-7-----3-3-2-x-----------------|
E|-0-0-0-0-------0-0-------------------------|



e|---------------------------------------------|
B|---------------------------------------------|
G|---------------------------------------------|
D|-7/9---------9-9---------12-12-11---11/12----|
A|-5/7---------7-7---------10-10-9-----9/10----|
E|-----0-0---------0-0-0-0---------------------|



e|------------------------------------------|
B|------------------------------------------|
G|------------------------------------------|
D|-7/9---------9-9------5-5-4-x-------------|
A|-5/7---------7-7------3-3-2-x-------------|
E|-----0-0---------0000---------------------|



e|--------------------------------------|
B|--------------------------------------|
G|--------------------------------------|
D|-7/9-----9-9------12-12-11----12/4-2--|
A|-5/7-----7-7------10-10-9-----10/2-2--|
E|-----00------0000------------------0--|



e|---------------------------------|----------------------|
B|---------------------------------|----------------------|
G|---------------------------------|-----------------7----| x2
D|-9------9------9------9-7-9------|-9------9------7-5----|
A|-7------7------7------7-5-7------|-7------7------5------|
E|---0000---0000---0000-------0000-|---0000---0000--------|

MI5 SOL5
Golpeando sin piedad
RE5 MI5
contra tu voluntad,

D|-9-7-5-----------|
A|-7-5-3-----------|

DO5 RE5
arrepentidos llegaran.

D|--------------------77777-5555-4444-2222-|
A|2222-4444-5555-7777----------------------|

MI5 SOL5
Tu madre lo juró,
RE5 MI5
aquel error fatal

D|-9-7-5-----------|
A|-7-5-3-----------|

DO5 RE5
de sus entrañas, el final.

D|--------------------77777-5555-4444-2222-|
A|2222-4444-5555-7777----------------------|

MI5 SOL5
Tomó sin respirar
RE5 MI5
esa poción mortal,

D|-9-7-5-----------|
A|-7-5-3-----------|

DO5 RE5
su codicia gritaran.

D|--------------------77777-5555-4444-2222-|
A|2222-4444-5555-7777----------------------|



e|--------------------------------------------|
B|--------------------------------------------|
G|--------------------------------------------|
D|-----------------------------5/7------------|
A|-10p7------5p7------10p7-----3/5------------|
E|------0000-----0000------0000---------------|


e|--------------------------------------------|
B|--------------------------------------------|
G|--------------------------------------------|
D|------------------------------3/4-----------|
A|-10p7------5p7------10p7------1/2--5-4------|
E|------0000-----0000------0000------3-2------|


Ninguno preguntó
hoy nada cambiará,
vomitaron su verdad.

Y nuestra realidad
nos cuenta una vez mas
no te dejes engañar.

e|------------|------------|------------|------------|
B|------------|-12p10p8----|-10p9p7-----|-13p12p10---|
G|-12p11p9--x4|----------x4|----------x4|----------x4| x2
D|------------|------------|------------|------------|
A|------------|------------|------------|------------|
E|------------|------------|------------|------------|


e|---------------------------------------------------|
B|---------------------------------------------------|
G|--------------------------5------------------------|
D|-2------2------2------4-5-3-3333333333-------------|
A|-0-0000-0-0000-0-0000-2-3--------------------------|
E|---------------------------------------------------|


D|----------------2|
A|-5555-3333-2222--|
Siempre buscarás

D|----------------2222-5555-3333-2222---|
A|-5555-3333-2222---------------------5-|
todo el tiempo, todo siempre.

D|----------------2|
A|-5555-3333-2222--|
Siempre buscarás.

D|----------------2222-5555-3333-2222--------------------------2|
A|-5555-3333-2222---------------------5555-3333-2222-3333-5555-0|
No tendremos que aceptarlo el es el final.


e|-------------------------------------------------------------|
B|-------------------------------------------------------------|
G|-------------------------------------------------------------|x2
D|4---------------3---------------2-------------------------5-4|
A|2-2222222222222-1-1111111111111-0-0000000000000-5555-4444----|
E|-------------------------------------------------------------|


e|------------------------------------|
B|------------------------------------|
G|------------------------------------|
D|------------------------------------|
A|5/7-7777777777777--10h7-9h7-10h7-9h7|
E|------------------------------------|


e|------------------------------------|
B|------------------------------------|
G|------------------------------------|
D|--------------------------------10-9|
A|5/7-7777777777777-10101010-9999-----|
E|------------------------------------|


e|------------------------------------|
B|------------------------------------|
G|------------------------------------|
D|------------------------------------|
A|5/7-7777777777777--10h7-9h7-10h7-9h7|
E|------------------------------------|


e|------------------------------------|
B|------------------------------------|
G|------------------------------------|
D|--------------------------------10-9|
A|5/7-7777777777777-10101010-9999-----|
E|------------------------------------|



MI5 DO5
En estos días que
RE5 MI5
no quieren escuchar,

D|-9-7-5-----------|
A|-7-5-3-----------|

DO5 RE5
tu venganza cumplirás.

D|--------------------77777-5555-4444-2222-|
A|2222-4444-5555-7777----------------------|


Inútil de pensar,
ya no nos detendrán,
La señal es del metal.

Intro Solo Tapping
e|----------|----------|-----------|
B|12t8h5----|13t8h5----|-----------|
G|--------x4|--------x4|14t11h7--x4|
D|----------|----------|-----------|
A|----------|----------|-----------|
E|----------|----------|-----------|


e|-----------|----------|-----------|
B|-----------|----------|-----------|
G|16t13h9--x4|12t9h5--x4|14t11h7--x4|
D|-----------|----------|-----------|
A|-----------|----------|-----------|
E|-----------|----------|-----------|



e|----------|
B|----------|
G|----------|
D|----------|
A|9-7-5-4---|
E|7-5-3-2---|



Base Solo
e|---------------------------------------------------------------------|
B|---------------------------------------------------------------------|
G|---------------------------------------------------------------------|x4
D|------------5-----5-----7-----7-----9-----9-7-5-----5-----7-----7----|
A|2-----2-----3-333-3-333-5-555-5-555-7-777-7-5-3-333-3-333-5-555-5-555|
E|0-000-0-000----------------------------------------------------------|


A|-9-7-5-4--7-5-4-2---|
E|-7-5-3-2--6-3-2-0---|Al final del solo termina asi




Golpeando sin piedad
contra tu voluntad,
arrepentidos llegaran.
Inútil de pensar,
ya no nos detendrán,
La señal es del metal.
Siempre buscarás
en la oscuridad.
Siempre buscarás
en la oscuridad.

e|---------------------------------------------------------
B|---------------------------13----------------------------
G|9------9------9------11-12-10-10101010101010101010101010-
D|7-7777-7-7777-7-7777-9--10-------------------------------
A|---------------------------------------------------------
E|---------------------------------------------------------

--------------------------|
--------------------------|
--------------------------|x4
12121212-10101010-9999----|
--------------------------|
--------------------------|


e|-----------------------------------| |---|
B|-----------------------------------| |---|
G|-----------------------------------| |---|
D|-12121212-10101010-9999-10101010---| x3 |---|
A|-----------------------------------| |-7-|
E|-----------------------------------| |-5-|


G|-------4----|
D|-7-5-4-2-2--|
A|-5-3-2---0--|
Señal del Metal.


Aguante El Metal Argento.


NUEVO FORO DE MÚSICA

¿Tienes alguna duda, consulta, pregunta, consejo o algo para compartir sobre esta canción?

¡Puedes abrir un hilo en el FORO para que la comunidad te ayude! Hacer una pregunta

ACORDES PARA GUITARRA

PIANO UKELELE
E5
G5
D5
C5


Las más tocadas de Nepal

E5
G5
D5
C5