Foto-romántico (Acordes)

Nerdkids

Subida por Claudia

Compartir


Cambiar Cifrado
Americano Latino

Cambiar Tonalidad
-1 +1
Imprimir FAQ
+A
-A

Texto

Desplazamiento

Transportador

Color de Fondo

Archivos

-A
+A
intro:

e||------------------------------|
b||--9--5--9--7--7-7-7-7-7--7-7-7|
g||------------------------------|
d||------------------------------|
a||------------------------------|
E||------------------------------|

verso:

e||--------------------------------------|
b||--7h9-9-9-9-7-5-5---7h9-9-9-9-7-5-7-7-|
g||--------------------------------------|
d||--------------------------------------|
a||--------------------------------------|
E||--------------------------------------|

verso (punteo q repite mientras Mr.Món canta)

e||--------------------------------|
b||--5--9-5-5-9-5-5--7-5-5-7-5-7-5-|
g||--------------------------------|
d||--------------------------------|
a||--------------------------------|
E||--------------------------------|

e||--------------------------------|
b||--5--9-5-5-9-5-5--7-7-7-7-7-7-7-|
g||--------------------------------|
d||--------------------------------|
a||--------------------------------|
E||--------------------------------|


Estribillo

Las notas muertas hacen armónicos
que provocan el sonido entre los
dos acordes.

    F#5               E5
e||---------------------------------|
b||---------------------------------|
g||--6--6-6-6-(6)-(6)-4--4-4-4-4-4-4|
d||--4--4-4-4-(4)-(4)-2--2-2-2-2-2-2|
a||---------------------------------|
E||---------------------------------|

Post estribillo (tambien acompania a
al punteo del final)

    C#5              B5
e||---------------------------------|
b||---------------------------------|
g||--6--6-6-6-(6)-(6)-4--4-4-4-4-4-4|
d||--6--6-6-6-(6)-(6)-4--2-2-2-2-2-2|
a||--4--4-4-4-(4)-(4)-2--2-2-2-2-2-2|
E||---------------------------------|

punteo final(el 9 de acordes web e no
es necesario ponerlo)

    C#m
e||--9-9-9-9-9-9|
b||--9-9-9-9-9-9|
g||--9-9-9-9-9-9|
d||-------------|
a||-------------|
E||-------------|


La letra:

SI LA pasamos bien,
eso fue algo casual,
no voy a responder
ni voy a preguntar,
SI LA pasamos bien
eso fue algo casual,
no vuelve a suceder,
ha sido solo un flash,
un flash de luz sentimental
flaash de luz sentimental.
fue...
foto romantico,
foto romantico
si te gusta dame
algo de amoor



dedicado a cecilia q me banco una conversaciom
de msn de la puta madre jajaja
te kiero, gracias x la onda

[email protected] es mi mail, agregen q soi
wena onda jajja


Video Clip de Foto-romántico


ACORDES PARA GUITARRA

PIANO UKELELE
F#5
E5
C#5
B5
C#m
B
A


TOP 20: Las más tocadas de Nerdkids


Toca una Canción al Azar de Nerdkids

Acordes

Cerrar
F#5
E5
C#5
B5
C#m
B
A

15.32

x

51