Donde estas corazon

Nicho Hinojosa

Acordes

Bar 3 (2002)
Subida por gsuarez33


Más Versiones
Ver. 2 Ver. 3 Ver. 4 Ver. 5

Cambiar Cifrado
Americano Latino

Cambiar Tonalidad
-1 +1

Partir Pantalla Imprimir FAQ

+A
-A


Ver solo la LETRA
ACORDES
A2 Dm2 Amaj7 A/F# D/F#
E - 0 E - 0 E - 0 E - 0 E - 2
B - 0 B - 3 B - 2 B - 0 B - 3
G - 2 G - 2 G - 1 G - 2 G - 2
D - 2 D - 3 D - 2 D - 2 D - 0
A - 0 A - 2 A - 0 A - 0 A - X
E - 0 E - X E - 0 E - 2 E - 2

INTRO
A A/F# E7 A2
e -------------------------------------------------------------0--
B ----0--0--------0--0--------0--0--------0--0-----3--2--------0--
G ----2--2--2-----2--2--2-----2--2--2-----2--2-----1-----2-----2--
D -------------2-----------2-----------2--------2--2--------4--2--
A -0-----------0-----------------------------------2-----------0--
E -------------------------2-----------2--------------------------

A2 A2
e ---------0--------0--------0--------0--|
B ------0-----0-----0-----0-----0-----0--|
G ---2-----------2--2--2-----------2--2--|
D ------------------2-----------------2--|
A ------------------0-----------------0--|
E ---------------------------------------|

Am
Yo le quería con toda el alma
A7 Dm
como se quiere sólo una vez
E7 E7sus4
pero el destino cambió mi suerte
E7 Am
quiso dejarme sin su querer.


Am
Una mañana de frío invierno
A7 Dm
sin darme cuenta se echó a volar
E7 Am
y desde entonces aún le espero
E7 A
no me resigno a la soledad.


A E7
¿Dónde estás, corazón? no oígo tu palpitar
Bm E7 A
es tan grande el dolor, que no puedo llorar,
A7 D Dm2
no quisiera lloraaaar y no tengo más llanto
A Bm E7 A
le quería yo tanto y se fue para nunca volver.


PUENTE
A A/F# E7 A2
e -------------------------------------------------------------0--
B ----0--0--------0--0--------0--0--------0--0-----3--2--------0--
G ----2--2--2-----2--2--2-----2--2--2-----2--2-----1-----2-----2--
D -------------2-----------2-----------2--------2--2--------4--2--
A -0-----------0-----------------------------------2-----------0--
E -------------------------2-----------2--------------------------

A2 A2
e ---------0--------0--------0--------0--|
B ------0-----0-----0-----0-----0-----0--|
G ---2-----------2--2--2-----------2--2--|
D ------------------2-----------------2--|
A ------------------0-----------------0--|
E ---------------------------------------|

Am
Yo le quería con toda el alma
A7 Dm
como se quiere sólo una vez
E7 E7sus4
pero el destino cambió mi suerte
E7 Am
quiso dejarme sin su querer.


Am
Tan sólo el tiempo borrar podría
A7 Dm
aquellos años de tanto amor
E7 Am
y una mañana de frío invierno
E7 A
la luz del alba se obscureció.


A E7
¿Dónde estás, corazón? no oígo tu palpitar
Bm E7 A
es tan grande el dolor, que no puedo llorar,
A7 D Dm2
no quisiera lloraaaar y no tengo más llanto
A Bm E7 A Dm2
le quería yo tanto y se fue para nunca volver,
A Bm E7 A A2
le quería yo tanto y se fue para nunca volver.

A A/F# D/F# E7 Amaj7
Pa pa papa, pa pa papa, pa pa pa pa, pa pa papapa pa papaaa


NUEVO FORO DE MÚSICA

¿Tienes alguna duda, consulta, pregunta, consejo o algo para compartir sobre esta canción?

¡Puedes abrir un hilo en el FORO para que la comunidad te ayude! Hacer una pregunta

ACORDES PARA GUITARRA

PIANO UKELELE
A2
Dmadd9
Amaj7
A/F#
D/F#
E
B
G
D
A
E7
Am
A7
Dm
E7sus4
Bm


Las más tocadas de Nicho Hinojosa

A2
Dmadd9
Amaj7
A/F#
D/F#
E
B
G
D
A
E7
Am
A7
Dm
E7sus4
Bm