Ay Amor

Nicho Hinojosa

Acordes

... en el Bar (1999)
Subida por Moddlp


Más Versiones
Ver. 2 Ver. 3 Ver. 4 Ver. 5 Ver. 6

Cambiar Cifrado
Americano Latino

Cambiar Tonalidad
-1 +1

Partir Pantalla Imprimir FAQ

+A
-A
intro

G Em C
e--------------------------------------------------------------------
b--0--1--0--------0-----------0-----0--1--0-------0-----0--1--1------
g--0--0--0-----0-----0-----0-----0--0--0--0----0-----0--0--0--0-----0
d--------------------------------------------------------------------
a----------------------------------------------------------------3---
e--3--3--3--3-----------2-----------0--0--0--0-----------------------


D C
e--------3----------------------------------------------3------------
b--1-----------1-----0--1--3-----3-----3-------------------1------1--
g-----0-----0-----0--0--0--2--2-----2-----2---------0----------0-----
d--------------------------0--------------------2--------------------
a--------------------------------------------3-----------------------
e--------------------------------------------------------------------


verso

G Em D
e-------3-----------------------------------------------------------
b-----3-----3-----3-----3-----3-----3-----3-----1--0-----0--------3--
g-----0--------0-----------0-----------0--------0--0--0-----0-----2--
d--------------------------------------------------------------0-----
a--------------------------------------------------------------------
e--3-----------------3-----------2-----------0-------0---------------


C Em Am D
e--0--3--------------------------0-----------------0-----------------
b--------1-----1-----1-----0--------0-----0--1--------1-----1-----3--
g--------0--0-----0-----0--0--0--------0-----2--2--------2--------2--
d--------------------------------------------------------------0-----
a--------3-----------------------------------0-----------------------
e--------------------------0-----------------------------------------


e--2--------------
b-----3-----3-----
g--------2--------
d-----------------
a-----------------
e-----------------


G Em D
e-------3-----------------------------------------------------------
b-----3-----3-----3-----3-----3-----3-----3-----1--0-----0--------3--
g-----0--------0-----------0-----------0--------0--0--0-----0-----2--
d--------------------------------------------------------------0-----
a--------------------------------------------------------------------
e--3-----------------3-----------2-----------0-------0---------------


C Em Am D
e--0--3--------------------------0-----------------0----------2222222
b--------1-----1-----1-----0--------0-----0--1--------1-----1-3333333
g--------0--0-----0-----0--0--0--------0-----2--2--------2----2222222
d-------------------------------------------------------------0000000
a--------3-----------------------------------0-----------------------
e--------------------------0-----------------------------------------

letra del verso

no se por donde comenzar
es muy dificil para mi
como explicar, que ya acabo
que el sentimiento cambia

el tiempo no es un buen guardian
y la distancia no ayuda
algo paso, alguien llego
y no tiene remedio

coro (con acordes rasgueados, osea sin requinto)

C D
ay amor
G Em
perdoname
C
solo intento
no hacer daño
Am
sin mentiras
D
sin engaños
C D
Ay amor
G Em
entiendeme
C
se que es duro
D
y nose lo que hacer

(aqui sigue el intro y el segundo verso)

segundo verso

Si quieres verme alguna ves
tan solo llama y volvere
si tu dolor te deja ver
quisiera ser tu amigo

yo nunca te podre olvidar
pero el amor es como es
a veces da, aveces no
y no hay quien lo controle

segundo coro

C D
ay amor
G Em
perdoname
C
solo intento
no hacer daño
Am
sin mentiras
D
sin engaños
C D
Ay amor
G Em
entiendeme
C
se que es duro
D
y nose lo que hacer
C D
Ay amor
G Em
entiendeme
C
se que es duro
D
y nose lo que hacer+

OUTRO

G Em C
e--------------------------------------------------------------------
b--0--1--0--------0-----------0-----0--1--0-------0-----0--1--1------
g--0--0--0-----0-----0-----0-----0--0--0--0----0-----0--0--0--0-----0
d--------------------------------------------------------------------
a----------------------------------------------------------------3---
e--3--3--3--3-----------2-----------0--0--0--0-----------------------


D C
e--------3----------------------------------------------3------------
b--1-----------1-----0--1--3-----3-----3-------------------1------1--
g-----0-----0-----0--0--0--2--2-----2-----2---------0----------0-----
d--------------------------0--------------------2--------------------
a--------------------------------------------3-----------------------
e--------------------------------------------------------------------


G
e---------
b--0--1--0
g--0--0--0
d---------
a---------
e--3--3--3

Bueno raza, esta tablatura la saque lo mejor que se podia,
habia unas partes donde nose le entiende bien pero trate
hsta sacar lomas parecido que encontre, esa rola esta bien
fregona, es la cancion que cantaba flans pero la version
de nicho.


NUEVO FORO DE MÚSICA

¿Tienes alguna duda, consulta, pregunta, consejo o algo para compartir sobre esta canción?

¡Puedes abrir un hilo en el FORO para que la comunidad te ayude! Hacer una pregunta

ACORDES PARA GUITARRA

PIANO UKELELE
G
Em
C
D
Am


Las más tocadas de Nicho Hinojosa

G
Em
C
D
Am