En el ultimo trago (Acordes)

Nicho Hinojosa

Full Álbum: En el bar 2 (2001)
Subida por chordboy

Compartir


Cambiar Cifrado
Americano Latino

Cambiar Tonalidad
-1 +1
Imprimir FAQ
+A
-A

Texto

Desplazamiento

Transportador

Color de Fondo

Archivos

-A
+A
Intro    Riff 1

Riff 1
    D   Cdim D#dim Em             A7                D
e--2--------2/5-------------0--------------------------2h3-2--
B--3-3-----1---4----------3--3-0--2--3--4--5--3--2-----3------
G--2--2---2----------------0--0---0--0--0--0--0--0----2-------
D--0-----1------------2/4----------------------------0--------
A--------------------2------------0--2--3--4--2--0------------
E------------------0------------------------------------------


        D     Cdim     Em9
Tómate esta botella conmigo,                     +   x2x03x
        A7      +    ++    D5  D                 ++  x4x05x
y en el último trago nos vamos,
        D        Cdim      Em   Riff 2
quiero ver a que sabe tu olvido,
     A7           +    ++  D    A7/F#           A7/F#    X02022
sin poner en mis ojos tus manos.

      D        Cdim    Em/F#                    Em/F#    022002
Esta noche no voy a rogarte,
      A7       +     ++  D5
esta noche te vas de de veras,
       D      Cdim       Em/F#
que difícil tener que dejarte,
       A7      +  ++          D     D7
sin pensar que tú ya no me quieras.

CORO
         G       D/F#    Em    Em7
Nada me han enseñado los años,
         A7       +    ++      D    D9
siempre caigo en los mismos errores,
       D        Cdim       Em   Riff 2
otra vez a brindar con extraños,
       A7      +     ++      D        Em9  A7/F#  A7/F#
y a llorar por los mismos dolores.

(Bajeos sencillos)
Tómate esta botella conmigo,
y en el ultimo trago me besas,
                          Em    Em/G
esperamos que no haya testigos,
por si acaso te diera vergüenza.

Si algún día sin querer tropezamos,
no te agaches ni me hables de frente,
simplemente la mano nos damos,
y después que murmure la gente.

CORO

       G      D/F#      Em
Tómate esta botella conmigo,
        A7                 D      Riff 2
y en el ultimo trago nos vamos.


Riff 2
        Em/F#
e-----0--2---
B---0--------
G------------
D------------
A------------
E--------0---

Riff 3
                 A7 D
e----------------0--2-2--
B----------------2--3-3--
G----------------0--2-2--
D---------4-2-0--2--0-0--
A--0--2-4--------0-------
E------------------------


Cdim    XX1212
D/F#    200232
Em9     022030


Video Clip de En el ultimo trago


ACORDES PARA GUITARRA

PIANO UKELELE
D
Cdim
D#dim
Em
A7
Em9
D5
Em/F#
D7
G
D/F#
Em7
D9
Em/G


TOP 20: Las más tocadas de Nicho Hinojosa


Acordes

Cerrar
D
Cdim
D#dim
Em
A7
Em9
D5
Em/F#
D7
G
D/F#
Em7
D9
Em/G

23.58

x

106