Sombra

Nicho Hinojosa

Acordes

Bar 3 (2002)
Subida por paola


Más Versiones
Ver. 2 Ver. 3 Ver. 4 Ver. 5 Ver. 6

Cambiar Cifrado
Americano Latino

Cambiar Tonalidad
-1 +1

Partir Pantalla Imprimir FAQ

+A
-A


Ver solo la LETRA
bueno, esta es la cancion de sombra de nicho, pero la version
que toco en el concierto en el metropolitan. Para los que lo vieron
por telehit, aqui esta.

INTRO Y VERSO

e|------------------------------------------------------------------|
b|-7---7---5---5---3---3----5---5---7---7--5---5--3---3---5-5-------|
g|---7-------6-------4--------6-------7------6------4---------------|
d|-0-------0-------0--------0-------0------0------------------------|
a|------------------------------------------------0-------0-0-------|
E|------------------------------------------------------------------|

este pedazo se toca 2 veces en el siguiente verso

Riff 1
e|---------------------------------------------------------------|
b|-7---7---5---5---3---3----5---5---7---7--5---5--3---3----------|
g|---7-------6-------4--------6-------7------6------4------------|
d|-0-------0-------0--------0-------0------0---------------------|
a|------------------------------------------------0--------------|
E|---------------------------------------------------------------|

Sombra que se fue
no quiere recuperar
vuelve a renacer
algun tiempo encontraras

G G/F# Em D
Como caminar si tu ya no estas

CORO

se toca un cambio asi

Riff 2
e|-----------|
b|-----------|
g|-----------|
d|-----------|
a|--0-2-3----|
E|-----------|

se toca el bajo respectivo arpegiando cada acorde

C9 C/B F9
Como si fuera una noche mas
G G/F# Em D
Ven y entregate dentro de mi
C9 C/B F9
Como la luna de noche estas
G
dejame vivir

Riff 2

C9 C/B F9
Como si fuera una noche mas
G G/F# Em D
Acostumbrate a mi corazon
C9 C/B F9
Como la luna de noche estas
G D
Este es tu rincon

Este es tu rincon

INTRO Y RIFF 1

Futuro dolor
Vira hacia aca
Vete de mi sol
Deja alimentar

G G/F# Em D
COmo caminar si tu ya no estas

Coro

FINAL

A D
e|--------------------------------------------------2-------|
b|-2-/0--2/-0--4-2-0----2-/0--2/-0--4-6-8-10-12-----3-------|
g|-2-/0--2-/0--4-2-0----2-/0--2-/0--4-6-8-10-12-----2-------|
d|--------------------------------------------------0-------|
a|----------------------------------------------------------|
E|----------------------------------------------------------|

ACORDES UTILIZADOS

A C9 G C/B D Em F9 G/F#
e|-0---3--3---0---2---0--3----3--|
b|-2---3--3---3---3---0--3----3--|
g|-2---0--0---0---2---0--2----0--|
d|-2---2--0---0---0---2--3----0--|
a|-0---3--2---2---0---2--0----0--|
E|-0---0--3---0---0---0--0----2--|


Espero les guste esta transcripcion. Se la quiero dedicar a todos mis amigos, a la banda de
el moco verde y a todos los que les guste la musica.
Bueno, cualquier peticion de alguna cancion, fotografias de sus hermanas o lo que sea,
aqui esta mi mail
[email protected]


NUEVO FORO DE MÚSICA

¿Tienes alguna duda, consulta, pregunta, consejo o algo para compartir sobre esta canción?

¡Puedes abrir un hilo en el FORO para que la comunidad te ayude! Hacer una pregunta

ACORDES PARA GUITARRA

PIANO UKELELE
G
G/F#
Em
D
C9
C/B
F9
A


Las más tocadas de Nicho Hinojosa

G
G/F#
Em
D
C9
C/B
F9
A