Volverás con el verano

Nicho Hinojosa

Acordes

Bar 3 (2002)
Subida por albano82


Más Versiones
Ver. 2 Ver. 3 Ver. 4 Ver. 5 Ver. 6

Cambiar Cifrado
Americano Latino

Cambiar Tonalidad
-1 +1

Partir Pantalla Imprimir FAQ

+A
-A


Ver solo la LETRA
ACORDES
A D Dm2/B A2/G# F#m F#m/E D/C# Bm Bm/A E E7sus4 E7 A7 A2
E - 0 E - 2 E - 0 E - X E - 2 E - 2 E - 2 E - 2 E - 2 E - 0 E - 0 E - 0 E - 0 E - 0
B - 2 B - 3 B - 3 B - 0 B - 2 B - 2 B - 3 B - 3 B - 3 B - 0 B - 0 B - 3 B - 2 B - 0
G - 2 G - 2 G - 2 G - 4 G - 2 G - 2 G - 2 G - 4 G - 4 G - 1 G - 2 G - 1 G - 0 G - 2
D - 2 D - 0 D - 3 D - 2 D - 4 D - 2 D - X D - 4 D - 4 D - 2 D - 0 D - 0 D - 2 D - 2
A - 0 A - 0 A - 2 A - X A - 4 A - 4 A - 3 A - 2 A - 0 A - 2 A - 2 A - 2 A - 0 A - 0
E - 0 E - X E - X E - 4 E - 2 E - 2 E - X E - 2 E - X E - 0 E - 0 E - 0 E - 0 E - X

INTRO
A2 A A2 A F#m Dm A
e -----0-----0-----0-----0-----0-----0-----0-----0-----0-----0-----0-----0-----0-----0-----0-----0----|
B --0-----0-----2-----2-----0-----0-----2-----2-----0-----0-----2-----2-----0-----0-----3-----3-------|
G --2-----------2-------------------------------------------------------------------------------------|
D --------------------------------------------------------------------------------------2-------------|
A --------------------------0-----------0-----------------------------------0-----------------------0-|
E --------------------------------------------------2-------------------------------------------------|

A D
Llego la hora de decir adiós
Dm2/B A A2/G# F#m
y como siempre tú te marcharás
F#m/E D D/C# Bm
hoy se termina un verano más
Bm/A E Dm2/B
y como siempre tú con él te irás.


A D
Mientrás regresas aquí esperaré
Dm2/B A A2/G# F#m
con la esperanza de volverte a ver
F#m/E D D/C# Bm
promete que esta vez no llorarás
Bm7 E7sus4 E7
cuando me quede sólo en e-el andé-én.


D E A A7sus4 A7
Volverás con el verano otra vez a mi
D E A Em A7
y tomada de mi mano vas a ser feli-i-i-i-iz,
D E A A7sus4 A7
volverás con el verano otra vez a mi
D E A Em A7
y acechando el calendario esperaré por ti-i-i-i-i,
D
pronto el tiempo ha de pasar
Dm E7 A
y por fin ya no te iras más.

PUENTE
A2 A A2 A F#m Dm A
e -----0-----0-----0-----0-----0-----0-----0-----0-----0-----0-----0-----0-----0-----0-----0-----0----|
B --0-----0-----2-----2-----0-----0-----2-----2-----0-----0-----2-----2-----0-----0-----3-----3-------|
G --2-----------2-------------------------------------------------------------------------------------|
D --------------------------------------------------------------------------------------2-------------|
A --------------------------0-----------0-----------------------------------0-----------------------0-|
E --------------------------------------------------2-------------------------------------------------|


A D
Mientrás regresas aquí esperaré
Dm2/B A A2/G# F#m
con la esperanza de volverte a ver
F#m/E D D/C# Bm
promete que esta vez no llorarás
Bm7 E7sus4 E7
cuando me quede sólo en e-el andé-én.


D E A A7sus4 A7
Volverás con el verano otra vez a mi
D E A Em A7
y tomada de mi mano vas a ser feli-i-i-i-iz,
D E A A7sus4 A7
volverás con el verano otra vez a mi
D E A Em A7
y acechando el calendario esperaré por ti-i-i-i-i,
D
pronto el tiempo ha de pasar
Dm E7 A
y por fin ya no te iras más,
D
pronto el tiempo ha de pasar
Dm E7 A
y por fin ya no te iras más.


FINAL
A2 A F#m A
e -----0-----0-----0-----0-----0-----0-----0--------0-----|
B --0-----0-----2-----2-----0-----0-----2-----2--0-----2--|
G --2-----------2--------------------------------------2--|
D -----------------------------------------------------2--|
A --0--------------------------------------------0-----0--|
E --------------------------2-----------------------------|


NUEVO FORO DE MÚSICA

¿Tienes alguna duda, consulta, pregunta, consejo o algo para compartir sobre esta canción?

¡Puedes abrir un hilo en el FORO para que la comunidad te ayude! Hacer una pregunta

ACORDES PARA GUITARRA

PIANO UKELELE
A
D
Dm/B
F#m
F#m/E
D/C#
Bm
Bm/A
E
E7sus4
E7
A7
A2
B
G
Dm
Bm7
A7sus4
Em


Las más tocadas de Nicho Hinojosa

A
D
Dm/B
F#m
F#m/E
D/C#
Bm
Bm/A
E
E7sus4
E7
A7
A2
B
G
Dm
Bm7
A7sus4
Em