Lotus

Nictofobia

Acordes

Subida por MiraMa


Más Versiones
Ver. 2 Ver. 3

Cambiar Cifrado
Americano Latino

Cambiar Tonalidad
-1 +1

Partir Pantalla Imprimir FAQ

+A
-A
el rock de venezuela es lo que manda... más nada...

A)

e ----------------------------------------
B ----------------------------------------
G ----------------------------------------
D --------2---------0--------0--------0---
A -----0---------2--------0--------0------
E --0---------0--------3--------2--------- x2

entra bajo, guitarra y batería...

B) (LA nota con el asterisco déjala sonar)

e ---------------------------------------------
B ---------------------------------------------
G ------------0*---------0*--------0*-------0*-
D --------2-----------0---------0--------0-----
A -----0-----------2----------0--------0-------
E --0-----------0-----------3--------2---------

(se repite A una sóla vez)

Estrofa:

Am Em
Mira este cuerpo detrás del vitral
G D
que está padeciendo un silencio sepulcral
Am Em
no busques mis ojos que no se abrirán
G D
no esperes que hable, mi alma no está


Precoro:
Em, Bm, G, F#... F#, G, F# (x2)


Coro:

Am Em
no... no me pidas perdón
G D
no me supliques porque ya no estoy (x2)

A)

e ----------------------------------------
B ----------------------------------------
G ----------------------------------------
D --------2---------0--------0--------0---
A -----0---------2--------0--------0------
E --0---------0--------3--------2--------- x2

entra bajo, guitarra y batería...

B) (LA nota con el asterisco déjala sonar)

e ---------------------------------------------
B ---------------------------------------------
G ------------0*---------0*--------0*-------0*-
D --------2-----------0---------0--------0-----
A -----0-----------2----------0--------0-------
E --0-----------0-----------3--------2---------

(se repite A una sóla vez)

Estrofa 2:

Am Em
Mira este cuerpo detrás del vitral
G D
llora por dentro y tú no lo sabrás
Am Em
llévale flores a aquél que te amó
G D
un mártir consciente que probó tu dolor


Coro (x2)

Acompañamiento del solo: Am, Em, G, D (x2)

Coro (x2)

A)

e ----------------------------------------
B ----------------------------------------
G ----------------------------------------
D --------2---------0--------0--------0---
A -----0---------2--------0--------0------
E --0---------0--------3--------2--------- x2

entra bajo, guitarra y batería...

B) (LA nota con el asterisco déjala sonar)

e ---------------------------------------------
B ---------------------------------------------
G ------------0*---------0*--------0*-------0*-
D --------2-----------0---------0--------0-----
A -----0-----------2----------0--------0-------
E --0-----------0-----------3--------2---------

(se repite A una sóla vez)

e --------------------0*---------
B ----------------0--------------
G ------------0------------------
D --------2----------------------
A -----0-------------------------
E --0----------------------------

Final: Em


NUEVO FORO DE MÚSICA

¿Tienes alguna duda, consulta, pregunta, consejo o algo para compartir sobre esta canción?

¡Puedes abrir un hilo en el FORO para que la comunidad te ayude! Hacer una pregunta

ACORDES PARA GUITARRA

PIANO UKELELE
A
B
A
Am
Em
G
D
Bm
F#


Las más tocadas de Nictofobia

A
B
A
Am
Em
G
D
Bm
F#