Estrellas

Nihilismo

Acordes

Subida por kevin


Más Versiones
Ver. 2

Cambiar Cifrado
Americano Latino

Cambiar Tonalidad
-1 +1

Partir Pantalla Imprimir FAQ

+A
-A
INTRO:

e|---------------------------------------------------------------|
B|---------------------------------------------------------------|
G|---------------------------------------------------------------|
D|--------------6p4---4h6-4~-----5/7--6--7--7/9--7--6--6h7-6~----|
A|--/7-7------------7--------------------------------------------|
E|-------7~------------------------------------------------------|


e|---------------------------------------------------------------|
B|---------------------------------------------------------------|
G|---------------------------------------------------------------|
D|-------------4h6p4---4h6-4--6-4~-----5/7--6--7--7/9--7--6------|
A|--/7-7-------------7---------------------------------------7~--|
E|-------7~------------------------------------------------------|


E F#
Ella lo llamó y él ya no le quiso contestar,
A E
tenía otro cuerpo a quien amar.
E F#
Ella en el último tren se escapaba a un recital,
A E
vino frío y clonazepam.


D A
Y nadie cuida su estrella
F# B
y ella se siente tan muerta.


F# B
Desarmándose, evitó llorar,
D A
no vale la pena, ¿a quién le importa
F# B
si ella se duerme o despierta,
E*
si ella viene o se va?


F#
Un corazón que borracho
A
deambula en la ciudad,
E D A
deambula en la ciudad-na-na-na-na,
E D A
deambula en la ciudad-na-na-na-na,
E D A
deambula en la ciuda-a-a-a-a-a-d.


F# B
Desarmándose, evitó llorar,
D A
no vale la pena, ¿a quién le importa
F# B
si ella se duerme o despierta,
E*
si ella viene o se va?


F#
Un corazón que borracho
A
deambula en la ciudad,
D A
ya alguien cuida su estrella....





--------------
|Acordes usados|
--------------

E5 F#5 A5 D5 B5
e|-----| e|-----| e|-----| e|-----| e|-----|
B|-----| B|-----| B|-----| B|-----| B|-----|
G|--9--| G|-----| G|-----| G|--7--| G|-----|
D|--9--| D|--4--| D|--7--| D|--7--| D|--4--|
A|--7--| A|--4--| A|--7--| A|--5--| A|--4--|
E|-----| E|--2--| E|--5--| E|-----| E|--2--|


E5*
e|-----|
B|-----|
G|-----|
D|--2--|
A|--2--|
E|--0--|


NUEVO FORO DE MÚSICA

¿Tienes alguna duda, consulta, pregunta, consejo o algo para compartir sobre esta canción?

¡Puedes abrir un hilo en el FORO para que la comunidad te ayude! Hacer una pregunta

ACORDES PARA GUITARRA

PIANO UKELELE
E
F#
A
D
B
E
E5
F#5
A5
D5
B5
E5


Las más tocadas de Nihilismo

E
F#
A
D
B
E
E5
F#5
A5
D5
B5
E5