Punkrockiemos

Nihilismo

Acordes

Subida por KENTHSDQ


Más Versiones
Ver. 2 Ver. 3

Cambiar Cifrado
Americano Latino

Cambiar Tonalidad
-1 +1

Partir Pantalla Imprimir FAQ

+A
-A


Ver solo la LETRA
INTRO:

A5
e|-------------------|
B|-------------------|
G|-------------------| x4
D|---------7-7-7-7---|
A|---------7-7-7-7---|
E|--0-2-4--5-5-5-5---|


A
Con la mirada fija
E
y apretando la mandíbula
D A
voy siguiéndote.


A
No puedo estar callado
E
y tan sólo hablo y hablo,
D A
nada puedo hacer.


E A
No te enrosques, date vuelta,
E A
¿no ves que empezó la fiesta?
E A
Si esto es todo una mentira
D
y es tan corta la vida
E A
a mí me da igual.


E A
Punkrockiemos, dale punkrockiemos,
E A
pinta fiesta, descontrol y a punkrockear.
E A
Punkrockiemos, dale punkrockiemos,
D E A
vamos que pinta fiesta y vamos a punkrockear.


INTRO


E A
Punkrockiemos, dale punkrockiemos,
E A
pinta fiesta, descontrol y a punkrockear.
E A
Punkrockiemos, dale punkrockiemos,
D E A
vamos que pinta fiesta y vamos a punkrockear.


FINAL:

A5 A5 A5 A5
e|------------------|------------------|------------|------------|
B|------------------|------------------|------------|------------|
G|------------------|------------------|------------|------------|
D|---------7-7-7-7--|---------7-7-7-7--|---------7--|---------7--|
A|---------7-7-7-7--|---------7-7-7-7--|---------7--|---------7--|
E|--0-2-4--5-5-5-5--|--0-2-4--5-5-5-5--|--0-2-4--5--|--0-2-4--5--|

A5
e|------------------|
B|------------------|
G|------------------|
D|---------7-7-7-7--|
A|---------7-7-7-7--|
E|--0-2-4--5-5-5-5--|





--------------
|Acordes usados|
--------------

A5 E5 D5
e|-----| e|-----| e|-----|
B|-----| B|-----| B|-----|
G|-----| G|--9--| G|--7--|
D|--7--| D|--9--| D|--7--|
A|--7--| A|--7--| A|--5--|
E|--5--| E|-----| E|-----|


NUEVO FORO DE MÚSICA

¿Tienes alguna duda, consulta, pregunta, consejo o algo para compartir sobre esta canción?

¡Puedes abrir un hilo en el FORO para que la comunidad te ayude! Hacer una pregunta

ACORDES PARA GUITARRA

PIANO UKELELE
A5
A
E
D
E5
D5


Las más tocadas de Nihilismo

A5
A
E
D
E5
D5