c ▷ TE KORTAN LA KABEZA: (Nihilismo) Acordes para Guitarra, Piano & Ukelele

Te kortan la kabeza (Acordes)

Nihilismo

Subida por Juan1402

Compartir


Imprimir FAQ
+A
-A

Texto

Desplazamiento

Transportador

Color de Fondo

Archivos

-A
+A
D A G D  x2
e----------------------------------------------------------
B--------8-7----------8-7----------8-7---------8-7---------
G-7--7-7-----9-7--7-7-----9-7--7-7-----9-7--7-7----9-7-7---
D----------------------------------------------------------
A----------------------------------------------------------
E----------------------------------------------------------

e----------------------------------------------------------
B---8-9-7-8-7--10--8-8-8-7-7-7-8-7-------------------------
G-7--------------------------------7-----------------------
D----------------------------------------------------------
A----------------------------------------------------------
E----------------------------------------------------------

D A G D
Hoy me puse a pensar un momento
aunke muchos no lo krean yo tambien a veces pienso
y me di cuenta de komo es la gente
si tiene una chance siempre te caga y te miente

D A G D
Yo Soy ejemplo de lo ke estoy kantando
mil veces kisas sin kererlo yo he traicionado
pero se bien ke no es como te kontaron
ke existen los amigos siempre en lo bueno y lo malo

G D A D
Kon esa gente ke komparti cervezas
es bajo si te descuidas te kortan la kabeza
Kon esa gente ke comparte cervezas
es bajo si te deskuidas te kortan la cabeza


e----------------------------------------------------------
B--------8-7----------8-7----------8-7---------8-7---------
G-7--7-7-----9-7--7-7-----9-7--7-7-----9-7--7-7----9-7-7---
D----------------------------------------------------------
A----------------------------------------------------------
E----------------------------------------------------------

e----------------------------------------------------------
B---8-9-7-8-7--10--8-8-8-7-7-7-8-7-------------------------
G-7--------------------------------7-----------------------
D----------------------------------------------------------
A----------------------------------------------------------
E----------------------------------------------------------

D A G D
Huelen la mierda ke pasa por el costado
pero de la suya casi nunca se hacen cargo
vienen sonrien dan palmadas en tu espalda
cuando te das vuelta ahi te dan la punialada

G D A D
Hoy me arrepiento kisas de haber confiado
kuanta gente mal de mi hoy debe estar hablando
igual no importa ke se vayan a la mierda
yo con esa gente nunca mas comparto mi cerveza
Kon esa gente ...


Video Clip de Te kortan la kabeza


ACORDES PARA GUITARRA

PIANO UKELELE
D
A
G


TOP 20: Las más tocadas de Nihilismo


Toca una Canción al Azar de Nihilismo

Acordes

Cerrar
D
A
G

17.12

x

68