Estrella (Acordes)

Niño Planeta

Subida por Jesi


Imprimir FAQ
+A
-A

Texto

Desplazamiento

Transportador

Color de Fondo

Herramientas

TAMAÑO
TONALIDAD
+A
subir tono+ (F4)
-A
bajar tono- (F2)
    
Bueno esta es mi primera colaboracion espero lo haga bien

intro
     Em           
e|---0----0----------------0-----------------------0------------------------0----------|
b|---0------0----------------1----------------3-------3----------------1-------1-------|
g|---0--------0---------0------0------------0---0-------0------------0---0-------0-----|
d|---2----------0----------------2------------------------4-------------------------2--|
a|---2------------3---------------------5------------------------3---------------------|
E|---0---------------------------------------------------------------------------------|

     Em                                                 D
e|---0----0----------------0-----------------3----------2---|
b|---0------0----------------1-------------0---0--------3---|
g|---0--------0---------0------0---------0-------0------2---|
d|---2----------0----------------2-----------------0----0---|
a|---2------------3-------------------2-----------------0---|
E|---0------------------------------3-------------------0---|


Em                          C
Una noche sentado frente al mar,
G                      D
vi caer una estrella fugaz,
Em                      C
le pedi un deseo de verdad,
G                              D
que no estuviera nunca en soledad,


 (coro)
Em               C     G                   D  
No estrella por favor, No me dejes en soledad,
Em              C    G                         D  
Nesecito tanto amor, Que no puedo dejar de llorar, 
      Em    C   G   D
de llorar


Em                            C
El amor es como las olas del mar,
G              D
que viene y se va, 
Em                            C
rompe como el rayo entre los cielos,
G                              D
es como el fruto amargo de la hiedra,
C                      D
que no son palabras sinceras,

  (coro)

HERRAMIENTAS ACORDESWEB:


LETRA DE LA CANCIÓN:

Ver la letra sola (sin acordes)

OTRAS VERSIONES DE LA MISMA CANCIÓN:

Ver. 2

DESCARGAR PDF / IMPRIMIR CANCIÓN



ACORDES PARA

em
Em
d
D
c
C
g
G


TOP 20: Las más tocadas de Niño Planeta