Ayurveda

Niños Mutantes

Acordes

Subida por Salguero07


Más Versiones
Ver. 2 Ver. 3

Cambiar Cifrado
Americano Latino

Cambiar Tonalidad
-1 +1

Partir Pantalla Imprimir FAQ

+A
-A
Uno de los grandes temas del disco de los Niños Mutantes, las tablaturas
usadlo para guiaros, no la escribo exacto.

Para alguna duda [email protected]

!!SEVILLA HASTA LA MUERTE!!


Mientras el bajo hace la secuencia Fa-Do-Re-La#, la guitarra toca:

e------------------
B------------------
G-------5…----2…-5…
D-3-3-3…---3…------
A------------------
E------------------

FA
Todo el tiempo que estamos encerrados
DO
respirando solo aire estancado
REm
hibernando entre muros de cemento
LA#
olvidando que solo hay un momento
FA
un momento solo porque no hay pasado
DO
porque no hay futuro , solo hay un momento
REm
y nos lo pasamos esperando algo
LA#
olvidando que todo lo tenemos.



El solo:
^=bend
e------------------------------------------------------------
B-6^(8)-6--5--6--5^(6)-5--3--1--6^(8)-6--5--6------10-10------
G----------------------------------------------12^(14)-------
D------------------------------------------------------------
A------------------------------------------------------------
E------------------------------------------------------------

(Mismos acordes y forma que el anterior, Fa Do Rem La#)

Y en este momento en que oyes esto
esta música que no tiene dueño
porque es de ti, y del universo
de las ondas que ya se han escapado
porque ya no están en este momento,
en este lugar, en este rincón del firmamento
que nos han regalado para siempre

(El solo repite el mismo que el anterior, y al final...)
e------12-12-----12-12-------13-13---
B---10--------10----------10---------
G---12^(14)-- 12^(14)---- 12^(14)---- X4
D------------------------------------
A------------------------------------
E------------------------------------

(Se repite primera estrofa con acordes completos, lo vuelvo a copiar)
FA
Todo el tiempo que estamos encerrados
DO
respirando solo aire estancado
REm
hibernando entre muros de cemento
LA#
olvidando que solo hay un momento
FA
un momento solo porque no hay pasado
DO
porque no hay futuro , solo hay un momento
REm
y nos lo pasamos esperando algo
LA#
olvidando que todo lo tenemos.

FA DO
Cara y cruz te dá
REm LA#
Cara y cruz te dá

De fondo la guitarra
e-10--8-----10--8-8-8-----
B--------10----------10-10
G------------------------- X VECES
D-------------------------
A-------------------------
E-------------------------

Suerte ;)


NUEVO FORO DE MÚSICA

¿Tienes alguna duda, consulta, pregunta, consejo o algo para compartir sobre esta canción?

¡Puedes abrir un hilo en el FORO para que la comunidad te ayude! Hacer una pregunta

ACORDES PARA GUITARRA

PIANO UKELELE
F
C
Dm
A#


Las más tocadas de Niños Mutantes

F
C
Dm
A#