Mi Canción

Niquel

Acordes

Subida por karjoe


Más Versiones
Ver. 2

Cambiar Cifrado
Americano Latino

Cambiar Tonalidad
-1 +1

Partir Pantalla Imprimir FAQ

+A
-A
Intro:     F Dm  F Dm G
Dm F Dm A
Dm F Dm G
F C Bb Dm
F

e|----------8-10-10-8-10-8-10-----13-10-8-------------------------------------|
B|------6-10-----------------------------10-10-8-10-8-10----------------------|
G|----------------------------------------------------------------------------|
D|----------------------------------------------------------------------------|
A|----------------------------------------------------------------------------|
E|----------------------------------------------------------------------------|


e|----------8-10-10-8-10-8-10-----13-10-8-------------------------------------|
B|------6-10-----------------------------10-10-8-10-8-10----------------------|
G|----------------------------------------------------------------------------|
D|----------------------------------------------------------------------------|
A|----------------------------------------------------------------------------|
E|----------------------------------------------------------------------------|

e|--------8-10-13-10-8-10-8-10--------8-10-13-10-8-10-8-10--------------------|
B|------10--------------------------10----------------------------------------|
G|----------------------------------------------------------------------------|
D|----------------------------------------------------------------------------|
A|----------------------------------------------------------------------------|
E|----------------------------------------------------------------------------|

e|--------8-10-13-10-8-10-8--8------------------------------------------------|
B|------10-----------------10-10-8-10-8---------------------------------------|
G|-------------------------------------10-14----------------------------------|
D|----------------------------------------------------------------------------|
A|----------------------------------------------------------------------------|
E|----------------------------------------------------------------------------|



Dm F
Cuando se agranda la noche
Dm G
Cuando te apreta el destino
Dm F
Cuando sean las vestiduras
Dm A
Las piedras en tu camino
Dm F
Cuando se acaba la fiesta
Dm G
Cuando se van los amigos
F
Alli estará mi canción
C Bb Dm F
Esperando, esperando por ti.

Cuando se acaban los versos
Cuando se apaga la rima
Cuando crecen los fantasmas
Que te llevan a la ruina
Cuando se acaba la magia
Cuando el amor se termina
Alli estará mi canción
Esperando, esperando por ti.

F
Alli estará mi canción
C Bb Dm F
Esperando, esperando por ti.


NUEVO FORO DE MÚSICA

¿Tienes alguna duda, consulta, pregunta, consejo o algo para compartir sobre esta canción?

¡Puedes abrir un hilo en el FORO para que la comunidad te ayude! Hacer una pregunta

ACORDES PARA GUITARRA

PIANO UKELELE
F
Dm
G
A
C
Bb


Las más tocadas de Niquel

F
Dm
G
A
C
Bb