Patea al Slogan (Acordes)

No Demuestra Interés

Subida por DANY

Compartir


Cambiar Cifrado
Americano Latino

Cambiar Tonalidad
-1 +1
Imprimir FAQ
+A
-A

Texto

Desplazamiento

Transportador

Color de Fondo

Archivos

TONALIDAD, TAMAÑO, CIFRADO, SCROL.

Nos renovamos: Ahora puedes cambiar TODO haciendo clic en ICONO de la Guitarra () que aparece en la parte inferior de esta página.


LETRA CON ACORDES

VERSOS
     E           D              G           C
E||--------------------------|--------------------------|
B||--------------------------|--------------------------|
G||--9--9--9--9--7--7--7--7--|--------------5--5--5--5--|
D||--9--9--9--9--7--7--7--7--|--5--5--5--5--5--5--5--5--|
A||--7--7--7--7--5--5--5--5--|--5--5--5--5--3--3--3--3--|
E||--------------------------|--3--3--3--3--------------|


ESTRIBILLO: 
 
  G           D              G           C
--------------------------|--------------------------|
--------------------------|--------------------------|
--------------7--7--7--7--|--------------5--5--5--5--|
--5--5--5--5--7--7--7--7--|--5--5--5--5--5--5--5--5--|
--5--5--5--5--5--5--5--5--|--5--5--5--5--3--3--3--3--|
--3--3--3--3--------------|--3--3--3--3--------------|

ESTA ES LA PASADA KE HACE LA GUITARRA SOLA ANTES
DEL 2do VERSO:                               
  E           D              G           C
--------------------------|--------------------------|
--------------------------|--------------------------|
--9--9--9--9--7--7--7--7--|--------------5--5--5--5--|
--9--9--9--9--7--7--7--7--|--5--5--5--5--5--5--5--5--|
--7--7--7--7--5--5--5--5--|--5--5--5--5--3--3--3--3--|
--------------------------|--3--3--3--3--------------|

FINAL:                                                           
  E           D              G           C
--------------------------|-----------------------|
--------------------------|-----------------------|
--9--9--9--9--7--7--7--7--|--------------5--------|
--9--9--9--9--7--7--7--7--|--5--5--5--5--5--------|
--7--7--7--7--5--5--5--5--|--5--5--5--5--3--------|
--------------------------|--3--3--3--3-----------|

Bueno esto es todo ,dudas ,o kualkier cosas a mi mail

suerte para [email protected]!!!

mAsSi       24/08/03 18:45pm (jaja re pro)


Video Clip de Patea al Slogan


ACORDES PARA GUITARRA

PIANO UKELELE
E
D
G
C


TOP 20: Las más tocadas de No Demuestra Interés


Acordes

Cerrar
E
D
G
C

23.51

x

84