Corre, João, Corre (Acordes)

Palankin

Subida por Granastone

Compartir


Cambiar Cifrado
Americano Latino

Cambiar Tonalidad
-1 +1
Imprimir FAQ

Para cambio de tonalidad, zoom, cambio de cifrado, haz clic en este botón


CONSEJO:

Afina tu guitarra antes de tocar. Prueba nuestro afinador en linea.

+A
-A

Texto

Desplazamiento

Transportador

Color de Fondo

Archivos

TONALIDAD, TAMAÑO, CIFRADO, SCROL.

Nos renovamos: Ahora puedes cambiar TODO haciendo clic en ICONO de la Guitarra () que aparece en la parte inferior de esta página.


LETRA CON ACORDES

[Riff 1]

E|---------------------------------------2----2------------------------|
B|---------------------------------------5| ?7--5------------------------|
G|-----------------------------------------------4h5-4---4-------------|
D|--2h4-4-2~7-4--2h4-4-2~9--2h4-4-2~7-4----------------7---7--4--------|
A|--2h4-4-2~7-4--2h4-4-2~9--2h4-4-2~7-4--------------------------------|
E|---------------------------------------------------------------------|

Corre João, corre!
Querem te ensurdecer
Com mentiras faladas milhões de vezes na TV!
Corre João, corre!
Querem te cegar
As fotos do Instagram iludem são pra matar.
Corre João, corre!
Qurem te dominar
Nem direita ou esquerda vão salvar!
Corre João, Corre!
Querem te matar
Te aplaudem com elogios pra seu ego inflar!

D          C#7       F#m
  Enquanto corre, desfrute da paisagem João!
D         C#7                B             C#7  
  Flores nascem e morrem em meio a um furacão!

F#m                   D9
Corre João, pegue sua arma na mão! 
          B9               B(b9)
Não deixe eles te pegarem, eles te mudarem!
F#m
Não, hoje não!

[Riff 1]

E|---------------------------------------2----2------------------------|
B|---------------------------------------5| ?7--5------------------------|
G|-----------------------------------------------4h5-4---4-------------|
D|--2h4-4-2~7-4--2h4-4-2~9--2h4-4-2~7-4----------------7---7--4--------|
A|--2h4-4-2~7-4--2h4-4-2~9--2h4-4-2~7-4--------------------------------|
E|---------------------------------------------------------------------|


Corre João, corre!
Querem te ganhar,
Falam tudo o que você gosta de escutar!
Corre João, Corre!
Não é hora de parar!
Somos a resistência, Vamos lá!

D          C#7       F#m
  Enquanto corre, desfrute da paisagem João!
D         C#7                B             C#7  
  Flores nascem e morrem em meio a um furacão!

F#m                   D9
Corre João, pegue sua arma na mão! 
          B9               B(b9)
Não deixe eles te pegarem, eles te mudarem!
F#m
Não, hoje não!

[Solo] F#m  D9  B  F#m 

E|---------------------------------------------------------------------|
B|-7-10~14~10--7-10~14~10-7-10~14~10--7-10~14~10-----------------------|
G|---------------------------------------------------------------------|
D|---------------------------------------------------------------------|
A|---------------------------------------------------------------------|
E|---------------------------------------------------------------------|

E|----------------------------------------------------------14-14-14-14-|
B|-7-10~15~10--7-10~15~10-7-10~15~10--7-10~15~10--16^17-16--17^17^17^17-|
G|----------------------------------------------------------------------|
D|----------------------------------------------------------------------|
A|----------------------------------------------------------------------|
E|----------------------------------------------------------------------|

E|-17-------------------------------------------------------------------|
B|---15-14---17---------------------------------------------------------|
G|---------16---16-14-13------------------------------------------------|
D|----------------------16----------------------------------------------|
A|----------------------------------------------------------------------|
E|----------------------------------------------------------------------|

                      D9
Corre João, pegue sua arma na mão! 
          B9               B(b9)
Não deixe eles te pegarem, Eles te mudarem!
F#m
Não, hoje não!

Video Clip de Corre, João, Corre


ACORDES PARA GUITARRA

PIANO UKELELE
D
C#7
F#m
B
D9
B9


TOP 20: Las más tocadas de Palankin


Toca una Canción al Azar de Palankin

Acordes

Cerrar
D
C#7
F#m
B
D9
B9

18.24


177