Hurts 2B human ft. Khalid
Pink
Acordes

Subida por M1capas



HERRAMIENTAS

Cambiar Cifrado
Americano Latino

Cambiar Tonalidad
-1 +1

Partir Pantalla Imprimir FAQ

+A
-A
LETRA CON ACORDES

¿Tu Guitarra esta Afinada? PRUEBA NUESTRO NUEVO AFINADOR

 


Intro:

 G/B Csus2 G   Em7     Em7  D    C    G      Em7 Gmaj7/F# Csus2
e|----------------------7----5----3----3------------------------|
B|----------------------8----7----5----3------8----8------8-----|
G|0----0----0----0------7----7----5----4------7----7------7-----| 
D|0----0----0----0------9----7----5----5------------------------| 
A|2----3----------------7----5----3----5------7----9------------|
E|----------3----0---------------------3------------------8-----|

Intro

  G/B     Csus2   G                Em7     Csus2    G
e|--------------------------------|--------------------------------|
B|--------------------------------|--------------------------------|
G|------0-------0-------0-------0-|------0-------0-------0-------0-|
D|---0-------0-------0-------0----|---0-------0-------0-------0----|
A|2-------3-----------------------|--------3-----------------------|
E|----------------3-------3-------|0---------------3-------3-------|


         G/B              Csus2       G
Will you make it sound so pretty even when it's not?
       Em7                 Csus2           G
Didn't choose but it's the only one we've got
        G/B            Csus2
And sometimes I get so tired
           G
Of getting tired up my thoughts
           Em7           Csus2
You're the only one that ever makes it stop

        G/B  Csus2       G
God, it hurts      to be human
        Em7 Csus2        G
Without you       I'd be losing
        G/B Csus2                G
And someday       we'll face the music
        Em7   Csus2
God, it hurts       to be human


             Em7       D         C         G
But I've got you, you, you, you, you, you (hey)
               Em7     D       C   G
And you've got me, me, me, me, too

        G/B           Csus2          G
I could buckle and preparing for the crash
         Em7            Csus2          G
Like I'm walking down a road of broken glass
       G/B           Csus2
Now if we defeat our lords and emperors
           G
And it was us against the world
          Em7
You could count on me
    Csus2              G
You know I'd have your back


        G/B   Csus2      G
God, it hurts      to be human
        Em7 Csus2        G
Without you       I'd be losing
        G/B Csus2                G
And someday       we'll face the music
        Em7   Csus2
God, it hurts       to be human


             Em7       D         C         G
But I've got you, you, you, you, you, you (hey)
               Em7     D       C   G
And you've got me, me, me, me, too
             Em7       D         C         G
But I've got you, you, you, you, you, you (hey)
               Em7     D       C   G
And you've got me, me, me, me, too

  Em7    Gmaj7/F# Csus2            Em7    Gmaj7/F#    Csus2
e|--------------------------------|--------------------------------|
B|------8-------8-------8-------8-|------8-------8-------8-------8-|
G|---7-------7-------7-------7----|---7-------7-------7-------7----|
D|--------------------------------|--------------------------------|
A|7-------9-----------------------|7-------9-----------------------|
E|----------------8-------8-------|----------------8-------8-------|


Em7    Gmaj7/F# Csus2

   Oh, flaws   away

   If you could spend a day in my shoes
Em7     Gmaj7/F#   Csus2
   Your mind would change

   If you'd known what I've gone through
Em7   Gmaj7/F# Csus2
   We want the same (Yeah, we do)
   Em7               Gmaj7/F#
   Maybe then you'll understand
N.C.
   How it hurts to be human


        G/B   Csus2      G
God, it hurts      to be human
        Em7 Csus2                G
Without you (without you) I'd be losing  (Yeah, yeah, yeah)
        G/B Csus2                G
And someday       we'll face the music
        Em7   Csus2
God, it hurts       to be human


             Em7       D         C         G
But I've got you, you, you, you, you, you (hey)
               Em7     D       C   G
And you've got me, me, me, me, too
             Em7       D         C         G
But I've got you, you, you, you, you, you (hey)
               Em7     D       C   G
And you've got me, me, me, me, too



           G/B   Csus2       G
Oh God, it hurts       to be human.




Primero en #AcordesWeb.com
 ////////////////// ¿Te Animas? Sube una canción a este sitio. //////////////////

ACORDES PARA GUITARRA

PIANO UKELELE


COMENTARIOS

Aún no hay comentarios,

¡escribe el primero!

Escribe una pregunta, duda o comentario sobre esta canción, te responderemos a la brevedad.

Las canciones más tocadas de Pink

Toca una Canción al Azar de Pink

12.41


Nuestro servidor se demoró 0.56 segundos en generar esta página. No esta nada mal!