El Taconazo (Acordes)

Piporro

Subida por KENTHSDQ

Compartir


Imprimir FAQ
+A
-A

Texto

Desplazamiento

Transportador

Color de Fondo

Archivos

-A
+A
ay les va una rolilla
para tokrse instrumental ment creo q c oie muy bn
ok
disfrutenla

E-----------------------------------
A-----------------------------------
D----------------------------------2
g--------2-0-------2-0--------2-----
b-1-1-1-0---1-1-1-0---1-1-1-0---1-0-
e-----------------------------------

E------------------------------------
A------------------------------------
D---------3--------3----------2-3----
g------2-0------2-0------2-0-2---0-2-
b-0-0-0----0-0-0----0-0-0---0-------0
e------------------------------------

E------------------------------------
A------------------------------------
D------------------------------------
g--------2-0-------2-0-------------2-
b-1-1-1-0---1-1-1-0---------------3--
e----------------------0-0-0-0-1-0---

E----------------------------------------
A--------------------------------------3-
D-----------------------------------3-2--
g------------------------2---2-0-2-0-----
b-3-3-3-3-1-0-1-1-1-3-1-0-0-0------------
e------0---------------------------------

E-----------------------------------------
A-----------------------------------------
D-0-2-3-----------------------------------
g------0-2----------------------------2---
b---------0-1-3-3-3-3-1-0-1-1--1-3-1-0-0-0
e------------------0----------------------

E-------------
A-------------
D-----------3-
g--------3-2--
b-2-0-2-0-----
e-------------

E---------------------------------
A---------------------------------
D---------------------------------
g--------2-0--------2-0-------2---
b-1-1-1-0----1-1-1-0---1-1-1-0-1-0
e---------------------------------

E--------------3--3--0---
A-3------------2--2--2--
D--0-2-3-------0--0--2--
g-------0-2----0--0--0--
b----------0-1-0--0--1--
e--------------1--1--0--

espero q les aya gustado la kncion
y ps sbss


Video Clip de El Taconazo


ACORDES PARA GUITARRA

PIANO UKELELE


TOP 20: Las más tocadas de Piporro


Toca una Canción al Azar de Piporro

Acordes

Cerrar

22.59

x

49