Quien moriria (Pixel) Acordes



Cambiar Cifrado: |SOL > G| - |G > SOL|

BAJAR UN TONO BAJAR UN SEMI-TONO SUBIR UN SEMI-TONO SUBIR UN TONO PARTIR PANTALLA EN VERTICAL PARTIR PANTALLA EN VERTICAL ¡Ayuda!
-A
+A
Esta cancion la considero la mejor cancion del cd...!
Se la dedico a Daniel porq se que le gusta Pixel jeje
prefiere Poco pero el es el cavernicola del siglo 21
jeje Bueno aki se las dejo cualkier error a mi email...!

-G# F# G5
- 4 - 2 - 4
- 4 - 2 - 4
- 6 - 2 - 4
- 6 - 4 - 2
- 4 - 4 - 2
- X - 2 - 4

Estas son las únicas Notas de la canción

Intro>
G# F# G5

Coro>
G#
Quien moriría por besar mis labios
G#
Quien moriría por una sonrisa
F#
Te cambio una caricia por un poco de malicia
F#
Siempre y cuando
G#
Quien moriría por besar mis labios
G#
Quien moriría por una sonrisa
F#
Te cambio una caricia por un poco de malicia
F#
Siempre y cuando
G5
Tú te quedes para mi


G#
Nada pensando y nada
G#
Sonando y nada
F#
Inocentemente
G#
Como una flor sentada entre sus pensamientos
G#
Y una canción que roba todos mis alientos
F#
Y no es mentira que suspira y que camina y mira
F#
Y no es mentira que suspira y que camina y mira
G#
Quien moriría por besar mis labios
G#
Quien moriría por una sonrisa
F#
Te cambio una caricia por un poco de malicia
F#
Siempre y cuando
G5


Solo<
---------------------------------------------------
-------------4>5>4----4----------------4-----------
-----4--6------------6-----------4--6------6--4----
-6----------------------------6-------------------6
---------------------------------------------------
---------------------------------------------------

---------------------------------------------------
-------------4>5>4----4----------------4-----------
-----4--6------------6-----------4--6------6--4----
-6----------------------------6-------------------6
---------------------------------------------------
---------------------------------------------------

---------------------------------------------------
---------------------------------------------------
--6---4--------------------------------------------
-----------6--7--6--------4----7----4--------------
-----------------------7---------------------------
---------------------------------------------------

---------------------------------------------------
-------5------4------5------4------5---4-----------
---6------6------6------6------6-------------------
---------------------------------------------------
---------------------------------------------------
---------------------------------------------------

---------------------------------------------------
--------5------4------5-----4-------5---4----------
----4------4------4-----4------4-------------------
---------------------------------------------------
---------------------------------------------------
---------------------------------------------------

---2----5---2---4---2---5---2---4---2---5---4------
---------------------------------------------------
---------------------------------------------------
---------------------------------------------------
---------------------------------------------------
---------------------------------------------------

G5
Tuuu
G#
Quien moriria por besar mis labios
G#
Quien moriría por una sonrisa
F#
Te cambio una caricia por un poco de malicia
F#
Siempre y cuando
G#
Quien moriria por besar mis labios
G#
Quien moriría por una sonrisa
F#
Te cambio una caricia por un poco de malicia
F# G5
Siempre y cuando
G#
Tú te kedes
F#
Tu te kedes
G#
Tu te kedes
F#
Tu te kedes
G#
Tu te kedes
F#
Tu te kedes
G#



¡Siguiente!

Toca una Canción al Azar de Pixel
G#
F#
G5




Aún no hay comentarios, ¡escribe el primero!

Escribe un comentario o pregunta sobre esta canción:




Más canciones de Pixel

Poco
Jamás Dejaré
La Depre
Cavernicola
Cualquier día como hoy
Quien moriria

Siguiente


ABRIR ACORDES

Nuestro servidor se demoró 0.05 segundos en generar esta página. Eso fue realmente muy rápido!