El Campo
Planeta No
Acordes

Subida por DarienG


Más Versiones
Ver. 2

HERRAMIENTAS

Cambiar Cifrado
Americano Latino

Cambiar Tonalidad
-1 +1

Partir Pantalla Imprimir FAQ

+A
-A

LETRA CON ACORDES

¿Tu Guitarra esta Afinada? PRUEBA NUESTRO NUEVO AFINADOR

Riff 1:
e|---------------------------------------------
B|---------------------------------------------
G|---------------------------------------------
D|-8--8--8--8--8--8--8--8----------------------
A|-5--5--5--5--6--6--6--6--8--8--8--8--8--8--8-
E|-------------------------6--6--6--6--6--6--6-

Riff 2:
e|-------------------------------------------
B|-------------------------------------------
G|-------------------------------10-10-10-10-
D|-8--8--8--8--8--8--8--8--8--8--10-10-10-10-
A|-10-10-10-10-9--9--9--8--8--8--8--8--8--8--
E|-------------------------------------------

Riff 1
Cuanto no te veía,
Riff 1
muchos años atrás.
Riff 2
El olor del pasto me llegó de pronto,
Riff 1
quiero decir algo, me llegó de pronto.

Riff 1
Noches frías,
Riff 1
tenemos un cassette,
Riff 2
miramos el fuego, nos hipnotizamos,
Riff 1
quiero decir algo, me llegó de pronto.

F D#
¿Quieres inventar
A# Dm
lo que te haga volver aquí?
A# D#
No te sientas mal,
A# Dm
yo también me he sentido así,
Dm Cm D#
te vuelvo a ver y me desarmas todo.

Riff 1
Cuanto no te veía,
Riff 1
muchos años atrás.
Riff 2
El olor del árbol más grande del campo
Riff 1
me llegó de pronto, me llegó de pronto.

F D#
¿Quieres inventar
A# Dm
lo que te haga volver aquí?
A# D#
No te sientas mal,
A# Dm
yo también me he sentido así,
Dm Cm D#
te vuelvo a ver y me desarmas todo,
Cm D#
siempre me desarmas todo,
Cm D#
te veo y me desarmas todo.

F
-5-
-6-
-5-
-7-
-8-
---

////////////////// ¿Te Animas? Sube una canción a este sitio. //////////////////

ACORDES PARA GUITARRA

PIANO UKELELE
F
D#
A#
Dm
Cm


COMENTARIOS

Aún no hay comentarios,

¡escribe el primero!

Escribe una pregunta, duda o comentario sobre esta canción, te responderemos a la brevedad.

Las canciones más tocadas de Planeta No

Toca una Canción al Azar de Planeta No
F
D#
A#
Dm
Cm

10.22


Nuestro servidor se demoró 0.06 segundos en generar esta página. Eso fue realmente muy rápido!