Estrella Fugaz
Plasma97
Acordes

Subida por Grimberg



Otras Versiones
Ver. 2

ENTRENA TU OÍDO MUSICAL CON ESTE JUEGO. ¿QUÉ ACORDE ES?. CLIC AQUÍ PARA JUGAR

Cambiar Cifrado
Americano Latino

Cambiar Tonalidad
-1 +1

Partir Pantalla Imprimir FAQ

Ver solo la LETRA

+A
-A
LETRA CON ACORDES
Holas que onda a que les dejo una de plasma
mi msn [email protected] cualquier duda
que tengas y quieran mas tema e plasma yo se
los doy a otros grupos del rock peruano.....
PLASMA 97(ESTRELLA FUGAZ)

SI5 FA#5- MI5 FA# 5
|--------------------------------------
|--------------------------------------
|--------------------------------------
|-1-1-1-1- 1-1-1-1--1-1-1-1----2-1-2-1--
|2-2-2-2-------------------------------
|--------2-2--2--2--0-0-0-0------0--0--0--

(REPETIR 3 VECES)

SI5 FA#5- MI5 FA# 5
|-------------------------------------
|------------------------------------
|-------------------------------------
|--1-1-1-1-1-1-1-1--------------------
|-2-2-2-2------------2-2-2-2-----4-4-4-
|--------2-2--2--2--0-0-0-0------2-2--2-2--

Gooooooooooo¡¡¡¡
(PUNTEO DISTORSION)
SI5 RE# 5 SOL#5 MI5 FA#5
|--7------7----------7-------7--------
|-5-5-4--5-5-4-5-4--5-5-4---5-5---5-4-
|4------4----------4-------4-----4---4
|-------------------------------6-----
|-------------------------------------
|-------------------------------------(REPETIR 2 VECES)
RE# -DO#- SI - DO# DO#(Segundo punteo)
|---------------------------------
|---------------------------------
|--9----8---6--------8---------8---
|-8----6---4------6-6------6-6---
|-6---4---2------4-4----4-4---------
|-------------------(REPETIR 2VECES)

SI DO# RE#5 - DO#5- SI5
|-----------------------------------
|-----------------------------------
|-----------------------8-----6----4
|-4-4-4--4----6-6-6-6----8-----6----4
|-2-2-2-.2----4--4-4--4--6-----4----2
|-------------------(REPETIR 2VECES)
Guitar Reverb -Chorus

YEAH (BASE DISTORSION)RE#5 -DO#5 -SI5-DO#5
(REPETIR 2VECES)


ME SIENTO MUY BIEN ... MESIENTO MEJOR
FA#5 DO#5 RE#5
VIVIENDO MIS SUEÑOS ...LIMPIANDOME
DO#5 FA#5
DE DROGAS Y ALCOHOL.... EMOCIONES
DO#5
HOY INVADEN MI CUERPO ...ME SIENTO BIEN
RE#5 DO#5

RE#5- DO#5 SI5 DO# 5
|9-------9-----------------9--------------
|-7-6-6-7-7-4-----0-6-7-0-6---0-6-7-0-6-7-
|-----------------------------------------
|-----------------------------------------
|-----------------------------------------
|--------------------------(REPETIR 2VECES)
KIERO ESTAR EN UN LUGAR
RE#5 DO#5
DONDE NADIE MAS PUEDA YA LLEGAR
SI5 DO#5
Y KIERO SER ESTRELLA FUGAZ
RE#5 DO#5
VIAJAR POR EL TIEMPO EL ESPACIO INFINITO
SI5 DO#5

RE#5- DO#5 SI5 DO#5
|---7-------------7--------7-6-7-6-7-6-7-6-
|0-4-5-4-5-4---0-4-5-4-5-4----7---7---7---7
|------------------------------------------
|------------------------------------------
|------------------------------------------
|------------------------------------------

VIAJAR POR EL TIEMPO EL ESPACIO INFINITO
SI5 DO#5 (REPETIR 2VECES)

YNOVOLVER Y NO VOLVER Y NO VOLVER
RE#5 DO#5 SI5 DO#5/2VECES)

NUNKA MAS¡¡¡
RE#5

(PUNTEO INTERMEDIO )DISTORSION FLANGER)
|--------------------------------------------
|--------------------------------------------
|11-11-11--10-10-10--11-11-11-10-10-10--11-10
|--------------------------------------------
|-9--9--9---8--8--8---9--9--9--8--8--8----9-8
|-----------------------------(REPETIR 3VECES)

|--------------------------------------------
|--------------------------------------------
|11-11-11-10-10-10-13-13-13-15-15-15-13-13-10
|--------------------------------------------
|9--9--9--8--8--8--11-11-11-13-13-13-11-11--8
--------------------------------------------


ACORDES PARA GUITARRA

PIANO UKELELE
B5
F#5
E5
F#
D#
G#5
C#
B
D#5
C#5


COMENTARIOS

Aún no hay comentarios,

¡escribe el primero!

Para hacer una pregunta o dejar un comentario sobre esta canción, debes estar LOGUEADO

Las canciones más tocadas de Plasma97

Toca una Canción al Azar de Plasma97
B5
F#5
E5
F#
D#
G#5
C#
B
D#5
C#5

Nuestro servidor se demoró 0.19 segundos en generar esta página. Eso fue realmente muy rápido!