Pensé
Play
Acordes

Subida por juantonio


Más Versiones
Ver. 2 Ver. 3

Cambiar Cifrado
Americano Latino

Cambiar Tonalidad
-1 +1

Partir Pantalla Imprimir FAQ

+A
-A


Ver solo la LETRA
weno aki les dejo ésta rola de play, espero q les guste xD byes

E C#m
e|--7-12-11-7-4-5-7-7-7-7-7-12-11-7------|
b|----------------------------------9-7--|
g|---------------------------------------|
D|---------------------------------------|
A|---------------------------------------|
E|---------------------------------------|
E
fué curioso como todo pasó
C#m
fué el destino lo que hoy conspiró
A B
a ciegas andando perdiendo razón
G#m C#m B A
en tus brazos caigo me perdí

E
hoy el viento mueve a nuestro favor
C#m
hoy mis manos sólo piden tu amor
A B
tu llegaste a mi en tu voz caí
G#m C#m B A
en tu mundo me quiero olvidar


A
no caben palabras
B
no cabe un error
E B C#m B A B
como la luna envuelve el destino del mar

E A C#m B
pensé que fué sólo un sueño encantado
E A C#m B
negué creer que en tus ojos me estaba mirando
C#m
y no entiendo
B
como con un sólo suspiro,
A B
yo te Amé

E C#m
e|--7-12-11-7-4-5-7-7-7-7-7-12-11-7------|
b|----------------------------------9-7--|
g|---------------------------------------|
D|---------------------------------------|
A|---------------------------------------|
E|---------------------------------------|
E
cuantos silencios hablan con convicción
C#m
cuantas dudas caen en la inspiración
A
me refugio en ti
B
me resigno a mi
G#m C#m B A
en tu presencia quiero descanzar

A
no caben palabras
B
no cabe un error
E B C#m B A B
como la luna envuelve el destino del mar

E A C#m B
pensé que fué sólo un sueño encantado
E A C#m B
negué creer que en tus ojos me estaba mirando
C#m
y no entiendo
B A
como con un sólo suspiro yo
E A C#m B
pensé que fué sólo un sueño encantado
E A C#m B
negué creer que en tus ojos me estaba mirando
C#m
y no entiendo
B A
como con un sólo suspiro yo
B
te Amé

[email protected]


ACORDES PARA GUITARRA

PIANO UKELELE
E
C#m
A
B
G#m


COMENTARIOS

Aún no hay comentarios,

¡escribe el primero!

Escribe una pregunta, duda o comentario sobre esta canción, te responderemos a la brevedad.

Las más tocadas de Play

Toca una Canción al Azar de Play
E
C#m
A
B
G#m