Búscame
Poligamia
Acordes

Subida por Wero7777


Más Versiones
Ver. 2 Ver. 3

Cambiar Cifrado
Americano Latino

Cambiar Tonalidad
-1 +1

Partir Pantalla Imprimir FAQ

+A
-A


Ver solo la LETRA
Aquí está la tablatura de una buena canción de poligamia, yo prefiero la versión en vivo.

Acordes:
Emm 022000
Cm 032010
Amm 002210
Gm 355433 ó 320033
Dm 057775 ó xx0232
E7m 021202

Nota: significa tocar 2 veces C y D rápido.

INTRO

Em
e------0----|---------------0-------------|--------------0--------------
B------0----|--------3---------3---3------|-------0--------0---0---------
G------0----|-----------0--------0----0---|-----0----0-------0---0-------
D------2----|------2------2-------------2-|---2--------2-----------2-----
A------2----|----2------------------------|-3----------------------------
E------0----|--0--------------------------|------------------------------


e---------------0-------------|--0--0--0--0-----0-----0--0--0-0-----0----
B--------3---------3---3------|--0--0--1----0-----0---0--0--1---0-----0--
G-----------0--------0----0---|--0--0--0------0-----0-0--0--0-----0-----0
D------2------2-------------2-|--2--2--2--------------2--2--2------------
A----2------------------------|--2--2--3--------------2--2--3------------
E--0--------------------------|--0--0--0--------------0--0--0------------

Em Am
Todo ha terminado has mentido otra vez
C Em
No vas a engañarme si te engañas tu también
Em Am
Por lo que demuestras el amor no es para ti
C Em
Pues tú jamás compartes, solo quieres recibir

Em - Am - C - D -
Ohhh

G Am
Algún día me comprenderás espero no sea tarde
C D
Si tú quieres encontrarme buscame en el atardecer
G Am
Buscame en el disco viejo que escuchábamos los dos
C E7
En el frió del concreto de la calle del amor…

Se repite INTRO

Em Am
Todo ha terminado has mentido otra vez
C Em
No vas a despreciarme si quieres odiarme ahora también
Em Am
Por lo que demuestras el amor no es para ti
C Em
Pues fue un gran sacrificio darme un poco de tu existir

/Estilo Funk***/
Em - Am - C - D -
Ohhh

G Am
Algún día me comprenderás espero no sea tarde
C D
Si tu quieres encontrarme buscame en el atardecer
G Am
Buscame en el disco viejo que escuchábamos los dos
C E7
En el frió del concreto de la calle del amor…

Riff Solo Piano
Em - Am - C - D -
G - Am -C -D -

BUENO ESPERO LES HAYA PARECIDO FACIL EL TOQUE DE ESTA CANCION DE POLIGAMIA,
BUEN ROCK COLOMBIANO, CUALQUIER VAINA ESCRIBANME, SUERTE…
UN SALUDITO A MI NOVIECITA PAOLA V.EN BOGOTA DE JULIAN MELO!!!!TQM


ACORDES PARA GUITARRA

PIANO UKELELE
Em
Am
C
D
G
E7


COMENTARIOS

Aún no hay comentarios,

¡escribe el primero!

Escribe una pregunta, duda o comentario sobre esta canción, te responderemos a la brevedad.

Las más tocadas de Poligamia

Toca una Canción al Azar de Poligamia
Em
Am
C
D
G
E7