Mi Promesa
Pomada
Acordes

Subida por Jano


Más Versiones
Ver. 2 Ver. 3

Cambiar Cifrado
Americano Latino

Cambiar Tonalidad
-1 +1

Partir Pantalla Imprimir FAQ

+A
-A


Ver solo la LETRA
INTRO:
MI LA DO#m7 SI
E|-------------------------------------------
a|-------------------------------------------
d|-------------------------------------------
g|---1-1-1----------------4--4--4--4---8--8--
b|--0-0-0------2-2-2-----5--5--5--5---7--7---
e|--------0---0-0-0-5---4--4--4--4---7--7--7-


MI LA
Aquí estoy a tu lado, mi promesa cumplí.
SI MI
Éste es el regalo que me pediste tú:
SOL# DO#m7
Una flor tan rojiza como tus labios,
LA,FA# SI
y un perfume de lila como el de aquella vez.

MI LA
Yo se que estás sola, y me quieres a mi
SI MI
Yo también he llorado, yo también creo en Dios.
SOL# DO#m7
y a pesar de mis noches vivo tan solo amor,
LA,SI MI
por estar a tu lado y pedirte perdón.

INTRO:
MI LA DO#m7 SI
E|-------------------------------------------
a|-------------------------------------------
d|-------------------------------------------
g|---1-1-1----------------4--4--4--4---8--8--
b|--0-0-0------2-2-2-----5--5--5--5---7--7---
e|--------0---0-0-0-5---4--4--4--4---7--7--7-


LA DO#m7 LA
No, no creas tu, que mi promesa olvidé,
FA# SI
por eso estoy junto a ti otra vez


MI LA
Aquí estoy a tu lado, mi promesa cumplí.
SI MI
Éste es el regalo que me pediste tú:
SOL# DO#m7
Una flor tan rojiza como tus labios,
LA ,SI MI
y un perfume de lila como el de aquella vez.





dedicado para todas las
cambas hermosas de mi
tierra santa cruz - bolivia


ACORDES PARA GUITARRA

PIANO UKELELE
E
A
C#m7
B
G#
F#


COMENTARIOS

Aún no hay comentarios,

¡escribe el primero!

Escribe una pregunta, duda o comentario sobre esta canción, te responderemos a la brevedad.

Las más tocadas de Pomada

Toca una Canción al Azar de Pomada
E
A
C#m7
B
G#
F#