El Sol (Acordes)

Poncho K

Subida por ROBIN

Compartir


Imprimir FAQ
+A
-A

Texto

Desplazamiento

Transportador

Color de Fondo

Archivos

-A
+A
G          Bm     C       D
-----------------------------------------------------------
-----------------------------------------------------------
---------------------------------7-------------------------
-7b9-7b9-----------------5-4-5-7---------------------------
---------10----------5-7-----------------------------------
------------7--5-7-8---------------------------------------
 G          Bm     C       D
-----------------------------------------------------------
-----------------------------------------------------------
-----------------------------------------------------------
-7b9-7b9-----------------5-4-5-4---------------------------
---------10----------5-7---------5-------------------------
------------7--5-7-8---------------------------------------

G
Absurdo como mi mano agarrando
   Bm
la pluma que enreda el papel
             C               D/D
Que al fin será la basura

         G
Que cada noche y cada día
     B7
Cada charca y cada ría
     C
Cada hombre que se fía
     D
Del amor y la alegría

      G
No es más que filosofía
    Bm
Que cuento de antitragedia
        C
Para salvar la agonía
             D
Y el miedo entre los malos ratos


          C
Yo soy el sol
             D
El que riega tus jardines
             G
De luces sin desencanto
B7
El que pasa los inviernos

          C
En la soledad amarga
           D
Abrazado a mi letargo
                G
El que se lleva la escarcha
Bm              G
Y desmorona los charcos

 G          Bm     C       D
-----------------------------------------------------------
-----------------------------------------------------------
---------------------------------7-------------------------
-7b9-7b9-----------------5-4-5-7---------------------------
---------10----------5-7-----------------------------------
------------7--5-7-8---------------------------------------

G
Abstracto, como la imagen que explica
     Bm
Una idea que ya pereció
          C             D/D
Que lleva tu sepultura

       G
Cada mirada y cada prisma
       B7
Cada impulso hacia la cima
     C
Cada mundo que se resigna
        D
Ante su ser y ante su herida

       G
No soy más que un sentimiento
        Bm
Que pasarán como arrieros
               C
Por un mar sin calma, por un río sin barca
            D
En la tempestad de mi travesura


          C
Yo soy el sol
             D
El que riega tus jardines
             G
De luces sin desencanto
B7
El que pasa los inviernos

          C
En la soledad amarga
           D
Abrazado a mi letargo
                G
El que se lleva la escarcha
Bm              G
Y desmorona los charcos

               C
Quien se lleva los lamentos
               G
Quien calienta los lagartos
                    D
El que alumbra tus eventos
Bm                   G
Y el que te quema descalzo

 G            Bm           C     D/D
-----------------------------------------------------------
-----------------------------------------------------------
-----------------------------------------------------------
-7b9-7b9b7----7b9-7b9b7----10------------------------------
-----------10-----------10---------------------------------
-----------------------------------------------------------


Video Clip de El Sol


ACORDES PARA GUITARRA

PIANO UKELELE
G
Bm
C
D
B7


TOP 20: Las más tocadas de Poncho K


Toca una Canción al Azar de Poncho K

Acordes

Cerrar
G
Bm
C
D
B7

16.40

x

71