Sol Que Se Ausenta En Estiercol
Poncho K
Acordes

Subida por VitoBass


Más Versiones
Ver. 2 Ver. 3

Cambiar Cifrado
Americano Latino

Cambiar Tonalidad
-1 +1

Partir Pantalla Imprimir FAQ

+A
-A


Ver solo la LETRA
Intro de violín:

C G Am F G
|----|--12--10--|-------------|------------------|
|----|----------|-13--12--13--|--10--------------|
|-5--|----------|-------------|------9--7--5--9--|
|----|----------|-------------|------------------|
|----|----------|-------------|------------------|
|----|----------|-------------|------------------|


C G Am F G
|-----|-----|---------|-12—10—12--|
|-----|-----|---------|-----------|
|--7--|--4--|--12--9--|-----------|
|-----|-----|---------|-----------|
|-----|-----|---------|-----------|
|-----|-----|---------|-----------|

Solo:

C G Am
|-----------------|-----------------|-----------------|
|-8-8-8--6--5-----|-----------------|-10-10-10--8--6--|
|--------------7--|-----4--5--7--5--|-----------------|
|-----------------|-5-7-------------|-----------------|
|-----------------|-----------------|-----------------|
|-----------------|-----------------|-----------------|


F G C G
--------------------|-------|----------------------|
-10--8--6--5--------|-------|----------------------|
--------------5-----|-------|----------------------|
-----------------5--|-------|-------5--7--5--7--5--|
--------------------|-8--7--|-7--8-----------------|
--------------------|-------|----------------------|

Am
|------------------|
|------------------|
|------4-5-7-7--5--|
|-5-7--------------|
|------------------|
|------------------|

F G C C
-------------------------------------------|--0--|
-------5--6--5--8--6--5--6--5--------------|--1--|
-5--7--------------------------5-----------|--0--|
----------------------------------5--3--2--|--2--|
-------------------------------------------|--3--|
-------------------------------------------|-----|

Toda la canción se toca con los acordes: C G Am F G

(Intro)

C G
Me enteré en un medio día,
Am F G
que era el cielo de noche
C G
el que tapaba tu cuerpo
Am F G
fría manta que arropa a lo lejos.
Y sol de mi Andalucía que llama al derroche
y ausenta en estiércol
Aceptaste al pudor no al desarme
combatiendo con yo tu enemigo.
Se ha declarado una guerra sin tregua
se ha declarado unaaa
guerra sin tregua, guerra sin tregua,
se ha declarado una....

(Solo)(C G Am F G)

Ya desterré los horrores
sacando a luz lo encubierto
por un estado corrupto,
que nos aboca a un fracaso constante
La que destaja mi alma
en tajadas de ardores, llantos y dolores.
Se ha desatado una guerra sin tregua,
se ha desatado unaaa...

Viví en una noche sin estrellas,
se destierra la esperanza
y muerde el polvo haciendo mella,
en una playa sin marea
se ha desatado una guerra sin tregua
Viví en un desierto sin arena
y que pena no encuentre alegría
la llave de vuestra condena y sabéis que moría...
Se ha desatado una guerra en silencio.


ACORDES PARA GUITARRA

PIANO UKELELE
C
G
Am
F


COMENTARIOS

Aún no hay comentarios,

¡escribe el primero!

Escribe una pregunta, duda o comentario sobre esta canción, te responderemos a la brevedad.

Las más tocadas de Poncho K

Toca una Canción al Azar de Poncho K
C
G
Am
F