Que puedo decir
Popcorn
Acordes

Subida por Ricky98


Más Versiones
Ver. 2

Cambiar Cifrado
Americano Latino

Cambiar Tonalidad
-1 +1

Partir Pantalla Imprimir FAQ

+A
-A


Ver solo la LETRA
E------2----|------0----|------0----|----0-----0|
B--------3--|--------3--|--------3--|-----------|
G-----------|-----------|-----------|-----------| x2
D--0-0------|-----------|-----------|-----------|
A-----------|--0-0------|--2-2------|--------0--|
E-----------|-----------|-----------|--3--------|

E------3-3--|------0----|------0----|----0-----0|
B------5-5--|--------3--|--------3--|-----------|
G-----------|-----------|-----------|-----------|
D--0-0------|-----------|-----------|-----------|
A-----------|--0-0------|--2-2------|--------0--|
E-----------|-----------|-----------|--3--------|

E------2-2--|------0----|------0----|----0-----0|
B------3-3--|--------3--|--------3--|-----------|
G-----------|-----------|-----------|-----------|
D--0-0------|-----------|-----------|-----------|
A-----------|--0-0------|--2-2------|--------0--|
E-----------|-----------|-----------|--3--------|

E------3-3--|------3-3--|------3-3--|----0-----0|
B------5-5--|------5-5--|------5-5--|-----------|
G-----------|-----------|-----------|-----------|
D--0-0------|-----------|-----------|-----------|
A-----------|--0-0------|--2-2------|--------0--|
E-----------|-----------|-----------|--3--------|

E------2----|------0----|------0----|----0-----0|
B--------3--|--------3--|--------3--|-----------|
G-----------|-----------|-----------|-----------|
D--0-0------|-----------|-----------|-----------|
A-----------|--0-0------|--2-2------|--------0--|
E-----------|-----------|-----------|--3--------|

Entra electrica


E-----------------------
B-3-3-3--3--3--3-3-3-3S5
G----------------------- X 3 para el acompañamiento se toca
D----------------------- la primer ves con D después con A
A----------------------- y por ultimo con Bm
E-----------------------

G A
E----------------------
B----------------------
G----------------------
D----------------------
A-2-2-2-2S5---4-4-4-4S7
E----------------------



E----------------------
B----------------------
G----------------------
D-0-2-4--4--0-2-4S5---- X 3para el acompañamiento se toca
A---------------------- la primer ves con D después con A
E---------------------- y por ultimo con Bm

G A
E----------------------
B----------------------
G----------------------
D-0-2-4-2---0-2-4-2----
A----------------------
E----------------------

E----------------------
B----------------------
G----------------------
D-0-2-4--4--0-2-4S5---- X 3para el acompañamiento se toca
A---------------------- la primer ves con D después con A
E---------------------- y por ultimo con Bm

G A
E----------------------
B----------------------
G----------------------
D-0-2-4-2---0-2-4-2----
A----------------------
E----------------------

D A Bm
Quedo pensando en ti Después de oírte decir
G A
Que has conocido a alguien Que te hace muy feliz
D A Bm
Nada puedo decir Ya me tocaba a mí
G A
Yo se lo hice alguien Y no me iba a convenir

CORO:

D F#m
Yo entiendo tu razón Tal vez siempre
G
Fue mi error Por no querer darme
A
Cuenta se me rompió El corazón
D F#m G
Hoy te pido perdón Por darte una ilusión
A
Yo también sueño contigo Lamento mi situación




E-----------------------
B-3-3-3--3--3--3-3-3-3S5
G----------------------- X 3 para el acompañamiento se toca
D----------------------- la primer ves con D después con A
A----------------------- y por ultimo con Bm
E-----------------------






G A
E----------------------
B----------------------
G----------------------
D----------------------
A-2-2-2-2S5---4-4-4-4S7
E----------------------



E----------------------
B----------------------
G----------------------
D-0-2-4--4--0-2-4S5---- X 3para el acompañamiento se toca
A---------------------- la primer ves con D después con A
E---------------------- y por ultimo con Bm

G A
E----------------------
B----------------------
G----------------------
D-0-2-4-2---0-2-4-2----
A----------------------
E----------------------

E----------------------
B----------------------
G----------------------
D-0-2-4--4--0-2-4S5---- X 3para el acompañamiento se toca
A---------------------- la primer ves con D después con A
E---------------------- y por ultimo con Bm

G A
E----------------------
B----------------------
G----------------------
D-0-2-4-2---0-2-4-2----
A----------------------
E----------------------

D
Quedo pensando en ti No se ni que sentir

Paso tan de repente Ojala seas feliz


Espero podamos ser Lo que nunca pudo ser
E-------------------------------------------------
B-------------------------------------------------
G-------------------------------------------------
D--0--2-4--------5-4-2--0---2-4-----------5-4-2-0-
A-------------------------------------------------
E-------------------------------------------------







G A D
Amigos solo amigos No hay mas nada por hacer

E----------------------
B----------------------
G----------------------
D-2-4-------------5-4--
A----------------------
E----------------------

CORO
D F#m
Yo entiendo tu razón Tal vez siempre
G
Fue mi error Por no querer darme
A
Cuenta se me rompió El corazón
D F#m G
Hoy te pido perdón Por darte una ilusión
A
Yo también sueño contigo Lamento mi situación


D D



E------2----|------0----|------0----|----0-----0|
B--------3--|--------3--|--------3--|-----------|
G-----------|-----------|-----------|-----------| x2
D--0-0------|-----------|-----------|-----------|
A-----------|--0-0------|--2-2------|--------0--|
E-----------|-----------|-----------|--3--------|


E------------------------------------------
B------------------------------------------
G------------------------------------------ x2
D-0-0-0-0-0-0-1-1-1-1-1-4-4-4-4-4-5-5-5-5-5
A------------------------------------------
E------------------------------------------


Dpm F#mpm
Yo entiendo tu razón Tal vez siempre
Gpm
Fue mi error Por no querer darme
Apm
Cuenta se me rompió El corazón
D F#m G
Hoy te pido perdón Por darte una ilusión
A D
Yo también sueño contigo Lamento mi situación

D C#(5) D x 4


D A F#m G
Ohhhhhhhhhhhhhhhhhhhhhhhhh
A
Que puedo decir
D A F#m G
Ohhhhhhhhhhhhhhhhhhhhhhhhh
A D
Que puedo decir


Que fue muy lindo conocerte
E------2----|------0----|------0----
B--------3--|--------3--|--------3--
G-----------|-----------|-----------
D--0-0------|-----------|-----------
A-----------|--0-0------|--2-2------
E-----------|-----------|-----------


Y no te puedo olvidar...
E----0-----0---------2|
B--------------------3|
G--------------------2|
D---------------------|
A--------0------------|
E--3------------------|

Acordes:
D A Bm G F#m
e|--5--|--5--|--7--|--3--|--2--|--X---|
B|--7--|--5--|--7--|--3--|--2--|--X---|
G|--7--|--6--|--7--|--4--|--2--|--11--|
D|--7--|--7--|--9--|--5--|--4--|--11--|
A|--5--|--7--|--9--|--5--|--4--|--9---|
E|--5--|--5--|--7--|--3--|--2--|--X---|


Pm= palm muted


muy buena cancion
dudas, quejas o sujerencias [email protected]


ACORDES PARA GUITARRA

PIANO UKELELE
G
A
D
Bm
F#m
C#


COMENTARIOS

Aún no hay comentarios,

¡escribe el primero!

Escribe una pregunta, duda o comentario sobre esta canción, te responderemos a la brevedad.

Las más tocadas de Popcorn

Toca una Canción al Azar de Popcorn
G
A
D
Bm
F#m
C#