Izquierdo
Pornomotora
Acordes

Subida por rodrigo


Más Versiones
Ver. 2

Cambiar Cifrado
Americano Latino

Cambiar Tonalidad
-1 +1

Partir Pantalla Imprimir FAQ

+A
-A


Ver solo la LETRA
INTRO ELECTRONICO:
E|----------------------|
B|-10---8h6---6-8s10----|
G|----------------------|
D|----------------------|
A|----------------------|
E|----------------------|

INTRO GUITARRA:
E|----------------------------------------|
B|----------------------------------------|
G|----------------------5--5--5-----------| x2
D|--7--7--7---3--3--3--55555555---5--5--5-|
A|-77777777--33333333--33333333--55555555-|
E|-55555555--11111111------------33333333-|
* ** ** * ** ** * ** ** * ** **

VERSO:
E|-------------------------------------|
B|-------------------------------------|
G|-------------------------------------|
D|-------------------55555555----------|
A|-77777777-33333333-33333333-55555555-|
E|-55555555-11111111----------33333333-|
******** ******** ******** ********
CORO:
E|-------------------------------------|
B|-------------------------------------|
G|-------------------55555555----------|
D|-77777777-33333333-55555555-55555555-|
A|-77777777-33333333-33333333-55555555-|
E|-55555555-11111111----------33333333-|

INTERMEDIO:(Todo dos veces)
E|--------------------------------------------|
B|--------------------------------------------|
G|-------14-------14------------10------10----|
D|----14-------14-------14---10------10-------|
A|-12-------12-------12----8-------8-------8--|
E|--------------------------------------------|
A5 F5
E|----------------------------------------------|
B|-------13-------13----------------------------|
G|----12-------12-------12-------12-------12----|
D|-10-------10-------10-------12-------12-------|
A|-------------------------10-------10-------10-|
E|----------------------------------------------|
C5 G5


No soy yo solo quien vive en este acuario
tan absurdo izquierdo que no entiendo
no entiendo y por mas que inteto
yo tragarme las verdades que me cuentan
yo sufro porque sufres
porque sin ti sin ti no tienes la culpa
pero yo tampoco, yo tampoco

CORO:
Soy un enfermo desonesto
pero soy listo y conservo
lo que yo espero de mi
lo que yo espero de mi
No soy tan cuerdo, ni tan ciego
no es una cuestion de religion
ni tampoco ambision
yo se que existes
y no es que no me importe el mundo

E|---X----X----X----X----|
B|---X----X----X----X----| * = PALM MUTE
G|---X----X----5----X----| s = slide
D|---X----7----5----5----| h = hammer on
A|---3----7----3----5----|
E|---1----5----X----3----|
F5 A5 C5 G5


ACORDES PARA GUITARRA

PIANO UKELELE
A5
F5
C5
G5


COMENTARIOS

Aún no hay comentarios,

¡escribe el primero!

Escribe una pregunta, duda o comentario sobre esta canción, te responderemos a la brevedad.

Las más tocadas de Pornomotora

Toca una Canción al Azar de Pornomotora
A5
F5
C5
G5