Cuxillo
Porter
Acordes

Subida por luisjte12


Más Versiones
Ver. 2 Ver. 3

Cambiar Cifrado
Americano Latino

Cambiar Tonalidad
-1 +1

Partir Pantalla Imprimir FAQ

+A
-A


Ver solo la LETRA
Basado en la versión de estudio
https://www.youtube.com/watch?v=G34jb7v3A78

Pueden tocar o no con PM, depende del sonido que prefieran conseguir.
Que la disfruten

Intro

PM............................................
E|----------------------|------------------------|
B|----------------------|------------------------|
G|-----------6-6-6-6-6--|--4-4-6-6-6-8-8-8-------|
D|-7-7-9-9-9------------|------------------9-9-9-|
A|-----------4-4-4-4-4--|--2-2-4-4-4-6-6-6-------|
E|-5-5-7-7-7------------|------------------7-7-7-|

E|------------------------------------------------|
B|------------------------------------------------|
G|------------------------------------------------|
D|--6-6--9-9-9--6-6--9-9-9--4-4-6-6-6-7-7-7-7-7---|
A|------------------------------------------------|
E|--4-4--7-7-7--4-4--7-7-7--2-2-4-4-4-5-5-5-5-5---|

PM......................
E|-----------------------|
B|-----------------------|
G|-----------------------| x4
D|--9-9-6-6-6-9-9-9-9-9--|
A|--7-7-------7-7-7-7-7--|
E|--0-0-4-4-4-0-0-0-0-0--|


Verso

PM...........................................
E|----------------------|------------------------|
B|----------------------|------------------------|
G|-----------6-6-6-6-6--|--4-4-6-6-6-8-8-8-------|
D|-7-7-9-9-9------------|------------------9-9-9-|
A|-----------4-4-4-4-4--|--2-2-4-4-4-6-6-6-------|
E|-5-5-7-7-7------------|------------------7-7-7-|
.............................................
E|------------------------------------------------|
B|------------------------------------------------|
G|------------------------------------------------|
D|--6-6--9-9-9--6-6--9-9-9--4-4-6-6-6-7-7-7-7-7---|
A|------------------------------------------------|
E|--4-4--7-7-7--4-4--7-7-7--2-2-4-4-4-5-5-5-5-5---|
x3
PM.....................
E|-----------------------|
B|-----------------------|
G|-----------------------| x4
D|--9-9-6-6-6-9-9-9-9-9--|
A|--7-7-------7-7-7-7-7--|
E|--0-0-4-4-4-0-0-0-0-0--|


Coro
A B C#m7 E
E|--5-5--5-5-5--|--2-2--2-2-2--|--4-4--4-4-4--|--7-7--7-7-7--|
B|--5-5--5-5-5--|--4-4--4-4-4--|--5-5--5-5-5--|--9-9--9-9-9--|
G|--6-6--6-6-6--|--4-4--4-4-4--|--4-4--4-4-4--|--9-9--9-9-9--| x4
D|--7-7--7-7-7--|--4-4--4-4-4--|--6-6--6-6-6--|--9-9--9-9-9--|
A|--------------|--------------|--------------|--------------|
E|--------------|--------------|--------------|--------------|


Puente

PM..................................
E|---------|-----------------------------|
B|--14-12--|-------14-12-----14-12-------|
G|---------|-13-11------13-11-----13-11--|
D|---------|-----------------------------|
A|---------|-----------------------------|
E|---------|-----------------------------|

PM.........................
E|--------11-|---------------11-|
B|-12---12---|-12--12--12--12---|
G|---13------|---13--13--13-----|
D|-----------|------------------|
A|-----------|------------------|
E|-----------|------------------|
.........................................
E|---------------11-|---------------11--------|
B|-12--12--12--12---|-12--12--12--12---12-----|
G|---13--13--13-----|---13--13--13--------13--|
D|------------------|-------------------------|
A|------------------|-------------------------|
E|------------------|-------------------------|


Solo

E|--------------------------------------|
B|-14p12-------------12-----------------|
G|-------13.-13--13~---13~13~-11-11-11--|
D|--------------------------------------|
A|--------------------------------------|
E|--------------------------------------|
x4
E|--------------------------------------|
B|-14p12-------------12-----------------|
G|-------13.-13--13~---13~13b14b13~~----|
D|--------------------------------------|
A|--------------------------------------|
E|--------------------------------------|

Puente
A B C#m7 E
E|--5-5--5-5-5-5-|--2-2--2-2-2-2-|--4-4--4-4-4-4-|--7-7--7-7-7-7-|
B|--5-5--5-5-5-5-|--4-4--4-4-4-4-|--5-5--5-5-5-5-|--9-9--9-9-9-9-|
G|--6-6--6-6-6-6-|--4-4--4-4-4-4-|--6-6--6-6-6-6-|--9-9--9-9-9-9-|
D|--7-7--7-7-7-6-|--4-4--4-4-4-4-|--7-7--7-7-7-7-|--9-9--9-9-9-9-|
A|---------------|---------------|---------------|---------------|
E|---------------|---------------|---------------|---------------|

PM......................
E|-----------------------|
B|-----------------------|
G|-----------------------| x4
D|--9-9-6-6-6-9-9-9-9-9--|
A|--7-7-------7-7-7-7-7--|
E|--0-0-4-4-4-0-0-0-0-0--|

Coro
A B C#m7 E
E|--5-5--5-5-5--|--2-2--2-2-2--|--4-4--4-4-4--|--7-7--7-7-7--|
B|--5-5--5-5-5--|--4-4--4-4-4--|--5-5--5-5-5--|--9-9--9-9-9--|
G|--6-6--6-6-6--|--4-4--4-4-4--|--4-4--4-4-4--|--9-9--9-9-9--| x10
D|--7-7--7-7-7--|--4-4--4-4-4--|--6-6--6-6-6--|--9-9--9-9-9--|
A|--------------|--------------|--------------|--------------|
E|--------------|--------------|--------------|--------------|

Puente (teclado)

E|---7-7--7-7-7--7-7-|
B|---9-9--9-9-9--9-9-|
G|---9-9--9-9-9--9-9-| Se repite hasta el final
D|---9-9--9-9-9--9-9-|
A|-------------------|
E|-------------------|

| p Pull-off
| B Bend
| ~ Vibrato
| PM Palm mute


ACORDES PARA GUITARRA

PIANO UKELELE
A
B
C#m7
E


COMENTARIOS

Aún no hay comentarios,

¡escribe el primero!

Escribe una pregunta, duda o comentario sobre esta canción, te responderemos a la brevedad.

Las más tocadas de Porter

Toca una Canción al Azar de Porter
A
B
C#m7
E