Compartir


Imprimir FAQ
+A
-A

Texto

Desplazamiento

Transportador

Color de Fondo

Archivos

-A
+A
Meeeoow!


INTRO:

   A#m         F#   G#
e|------------------------|
B|-6-6--6-6-6--2-2--4-4-4-|
G|-6-6--6-6-6--3-3--5-5-5-|
D|-8-8--8-8-8--4-4--6-6-6-|
A|------------------------|
E|------------------------|

   A#m         Fm   F#   Fm
e|---------------------------|
B|-6-6--6-6-6--1-1--2-2--1-1-|
G|-6-6--6-6-6--1-1--3-3--1-1-|
D|-8-8--8-8-8--3-3--4-4--3-3-|
A|---------------------------|
E|---------------------------|

VERSO:

Ahí muy cerca...

   D#m      A#m  C#
e|-2-2-2-2--1-1--4-4-4-4-4-4-|
B|-4-4-4-4--2-2--6-6-6-6-6-6-|
G|-3-3-3-3--3-3--6-6-6-6-6-6-|
D|---------------------------|
A|---------------------------|
E|---------------------------|

Donde el horizonte...

   C#          Fm     D#m     A#m         D#m      A#m
e|-4-4--4-4-4--8--8---6-6-6---1-1--1-1-1--2-2-2-2--1-1--|
B|-6-6--6-6-6--9--9---7-7-7---2-2--2-2-2--4-4-4-4--2-2--|
G|-6-6--6-6-6--10-10--8-8-8---3-3--3-3-3--3-3-3-3--3-3--|
D|------------------------------------------------------|
A|------------------------------------------------------|
E|------------------------------------------------------|

CORO:

Te volveré a encontrar...

    F#         G#         A#m            C#
e|------------------------------------------------|
B|------------------------------------------------|
G|---3--3-3~----5--5-5~----6--6-6--6~-----10-10~--|
D|------------------------------------------------|
A|------------------------------------------------|
E|--2--2-------4--4-------6--6----6------9--------|

VERSO:

Da de ti...

   C#          Fm     D#m     A#m
e|-4-4--4-4-4--8--8---6-6-6---1-1-1-1-1-1~-|
B|-6-6--6-6-6--9--9---7-7-7---2-2-2-2-2-2~-|
G|-6-6--6-6-6--10-10--8-8-8---3-3-3-3-3-3~-|
D|-----------------------------------------|
A|-----------------------------------------|
E|-----------------------------------------|

SOLO:

e|-------------------|
B|-------------------|
G|-------------------| (Esta parte se repite varias veces)
D|-------------------|
A|-4~---6~---9~---6~-|
E|-------------------|

e|-------------------|
B|-------------------|
G|-------------------| (x2)
D|-6~---4~---3~---4~-|
A|-------------------|
E|-------------------|

e|----|
B|----|
G|----|
D|----|
A|-4~-|
E|----|

FINAL:

A#m F# G#

A#m Fm F# Fm

e|--------------------------------------------------|
B|--------------------------------------------------|
G|--------------------------------------------------|
D|--------------------------------------------------|
A|-1-1-1-4-4/10~-10-10------------------------------|
E|-----------------------4-4/6~-6-6--4-4/6~-6-6-4-4-|

e|---------------------------------------------------|
B|---------------------------------------------------|
G|-13-13-13-13--11-11-11-11--10-10-10-10--11-11-11~--|
D|---------------------------------------------------|
A|---------------------------------------------------|
E|---------------------------------------------------|

  A#m
e|----|
B|----|
G|----|
D|----|
A|----|
E|-6~-|


Solo escuchen la rola.


Video Clip de Palapa


ACORDES PARA GUITARRA

PIANO UKELELE
A#m
F#
G#
Fm
D#m
C#


TOP 20: Las más tocadas de Porter


Toca una Canción al Azar de Porter

Acordes

Cerrar
A#m
F#
G#
Fm
D#m
C#

18.47

x

107