Bailar de a dos (Acordes)

Porto Seguro

Subida por emora

Compartir


Imprimir FAQ
+A
-A

Texto

Desplazamiento

Transportador

Color de Fondo

Archivos

-A
+A
Porto Seguro

Bailar de a Dos

Intro:

e-2-2-2---0-------|-2-2-2--0-----------
B-----------3--0--|-----------3--2-----
G-----------------|--------------------
D-----------------|--------------------
A-----------------|--------------------
E-----------------|--------------------

e-2-2-2---0--------------------|-2-2-2---0----------
B-----------3--0--3--0--3---4--|-------------3--0---
G------------------------------|--------------------
D------------------------------|--------------------
A------------------------------|--------------------
E------------------------------|--------------------

e-2-2-2---0--------------------
B------------3--2---3----0-----
G------------------------------
D------------------------------
A------------------------------
E------------------------------



Cualquier sugerencia o cambios de tablaturas
mandenme a mi e-mail.


Video Clip de Bailar de a dos


ACORDES PARA GUITARRA

PIANO UKELELE


TOP 20: Las más tocadas de Porto Seguro


Acordes

Cerrar

18.56

x

53