Parte de las reglas (Acordes)

Pr3ssion

Subida por MARYBEL

Compartir


Imprimir FAQ
+A
-A

Texto

Desplazamiento

Transportador

Color de Fondo

Archivos

-A
+A

Intro (Heavy Dist.):
e|------------------------------|--------------------------------|
B|------------------------------|--------------------------------|
G|------------5-----------5-----|-----------5-----------5--5-5-5-|
D|--2-2-2-2-2/5-2-2-2-2-2/5-5---|-2-2-2-2-2/5-2-2-2-2-2/5--5-5-5-|
A|--2-2-2-2-2/3-2-2-2-2-2/3---3-|-2-2-2-2-2/3-2-2-2-2-2/3--3-3-5-|
E|--0-0-0-0-0---0-0-0-0-0-------|-0-0-0-0-0---0-0-0-0-0----------|

e|------------------------------|--------------------------------|
B|------------------------------|--------------------------------|
G|------------5-----------5-----|-----------5-----------5--5-5-5-|
D|--2-2-2-2-2/5-2-2-2-2-2/5-5---|-2-2-2-2-2/5-2-2-2-2-2/5--5-5-5-|
A|--2-2-2-2-2/3-2-2-2-2-2/3---3-|-2-2-2-2-2/3-2-2-2-2-2/3--3-3-3-|
E|--0-0-0-0-0---0-0-0-0-0-------|-0-0-0-0-0---0-0-0-0-0----------|



Riff1 (Clean):
e|----------|      |----------3~~~~-|
B|----------|      |----------------|
G|------0---|x11   |------0---------|
D|----------|      |----------------|
A|----2---3-|      |----2---3-------|
E|--0-------|      |--0-------------|



Con Riff1:

Una sensación, congela mis sentidos
una vez más la deslealtad
sin consultar
                         Bridge
ya es parte de las reglas


Bridge (Heavy Dist.):
e|-----------------------------|
B|-----------------------------|
G|--9-----9-9-----9------9~~---|
D|--9-10--9-9-10--9-10---9~~---|
A|--7-10--7-7-10--7-10---7~~---|
E|----8-------8-----8----------|
                Ououuuuuuuuuuu


Con Riff1:

No puedo más 
tanta locura por nada
si tu misión es destrucción
te enfrentaré sin descansar hasta neutralizarte


Con Intro:

El dolor se transformó
la deslealtad me fortaleció
el dolor se transformó
la deslealtad me fortaleció.


Solo:
e|-------------------------------|--------------------------------|
B|-------------------------------|--------------------------------|
G|-----------------12~~----------|----------------12~~-/14-12~~~~-|
D|--9-10-9-10-9-10----10-9~~~~---|-9-10-9-10-9-10-----------------|
A|-------------------------------|--------------------------------|
E|-------------------------------|--------------------------------|


e|-------------------------------|--------------------------------|
B|-------------------------------|--------------------------------|
G|-----------------12~-----9~7~~-|-11-12-10~~~~~-11H12P11~~~~~9--|
D|--9-10-9-10-9-10----9-7~~~~----|--------------------------------|
A|-------------------------------|--------------------------------|
E|-------------------------------|--------------------------------|

    ................................................................Taping
e|----------------------------------|-------------------------------------|
B|----------------------------------|-------------------------------------|
G|--12-11-9-12-11-9-12-11-9-12-11-9-|-14-12-11-14-12-11-14-12-11-14-12-11-|
D|----------------------------------|-------------------------------------|
A|----------------------------------|-------------------------------------|
E|----------------------------------|-------------------------------------|

    ..............................Taping
e|--------------------------------------|-12~~~~~~~~~-12~~~~12~~~~~~~~----|
B|--------------------------------------|---------------------------------|
G|--16-14-12-16-14-12-16-14-12-16-14-12-|---------------------------------|
D|--------------------------------------|---------------------------------|
A|--------------------------------------|---------------------------------|
E|--------------------------------------|---------------------------------|


Con Intro:

El dolor se transformó
la deslealtad me fortaleció
el dolor se transformó
              E5 A5 A5 G5 E5~~~~~~~~
la deslealtad me forta-le-ció.



--------------------------------------------
Disfrutenlo, y toquenlo bien FUERTE!

-jmd-


Video Clip de Parte de las reglas


ACORDES PARA GUITARRA

PIANO UKELELE
E5
A5
G5


TOP 20: Las más tocadas de Pr3ssion


Toca una Canción al Azar de Pr3ssion

Acordes

Cerrar
E5
A5
G5

03.27

x

84