Déjame en paz (Acordes)

Preciados

Subida por Belu

Compartir


Imprimir FAQ
+A
-A

Texto

Desplazamiento

Transportador

Color de Fondo

Archivos

-A
+A
INTRO:
    G      A         D   Dsus D      G      A           D    Dsus D
E|--------------------------------|------------------------------|
B|-----10--8---------8------------|-----10--8---------8----------|
G|--7---------9-7-9------------9--|--7---------9-7-9----------9--|
D|--------------------------------|------------------------------|
A|--------------------------------|------------------------------|
E|--------------------------------|------------------------------|

     G       A           F#m      Bm       G            A   Asus2 A
E|------------------------------------------------------------------|
B|------10---8------------8-----------------------------------------|
G|---7------------9-7-9-------10---9---7-------------9--7-----------|
D|-----------------------------------------10-----------------------|
A|------------------------------------------------------------------|
E|------------------------------------------------------------------|

D (Dsus D), GA

 D           G          D   Dsus D
Ahora no me pienso levantar
     D        A               G
me quedaré tirado aquí en la cama
 G         A          Bm
toda la mañana a esperar
       Em             G            A   Asus2 A
que entiendas que no soy como esperabas.


      D            G            D  Dsus D
No quiero ser un miembro de tu club
      D         A             G
no quiero obedecer a los que mandan
 G           A             Bm
no pretendo ser igual que tú
    Em           G             A   Asus2 A
tampoco voy a hacer lo que tú hagas.


G   Bm
Oooooh ¿qué pasa?
A   D
Oooooh ¿tú qué miras?
G   A   D
Aaaaaaaaah


ESTRIBILLO
 G  A      D   Dsus D
Déjame en paz
   G             A            D   Dsus D
a ti qué más te da lo que yo haga
 G         A           F#m  Bm
sólo te dedicas a estorbar
        G                  A         Asus2 A
y al final haré lo que me dé la gana.

(segunda parte del intro)


(como en la primera estrofa)
Hoy he encendido la televisión
y he visto un rato el telenoticias
otra arma de concienciación
que provoca destrucción masiva.


No creo en el derecho mercantil
no creo en juramentos a la patria
pa´ cuatro días que voy a vivir
podría estar tocando la guitarra.


Oooooh ¿qué pasa?
Oooooh ¿tú qué miras?
Aaaaaaaaah


ESTRIBILLO
Déjame en paz
a ti qué más te da lo que yo haga
sólo te dedicas a estorbar
y al final haré lo que me dé la gana.


     Bm                Em
No quiero una vida planeada
      G                           F#
no insistas en que tengo que estudiar
     Bm                    Em
no quiero decidir en dos semanas
        G                          F#
si te quiero o no te quiero de verdad.


ESTRIBILLO
Déjame en paz
a ti qué más te da lo que yo haga
sólo te dedicas a estorbar
y al final haré lo que me dé la gana.


ESTRIBILLO
Déjame en paz
a ti qué más te da lo que yo haga
sólo te dedicas a estorbar
y al final haré lo que me dé la gana.


FINAL:
E|----------------------|
B|----------------------|
G|----------------------|
D|----------------------|
A|---0--1--2--3--4--5---|
E|----------------------|


Video Clip de Déjame en paz


ACORDES PARA GUITARRA

PIANO UKELELE
G
A
D
Dsus
F#m
Bm
Asus2
Em
F#


TOP 20: Las más tocadas de Preciados


Toca una Canción al Azar de Preciados

Acordes

Cerrar
G
A
D
Dsus
F#m
Bm
Asus2
Em
F#

19.22

x

148