Compartir


Imprimir FAQ
+A
-A

Texto

Desplazamiento

Transportador

Color de Fondo

Archivos

-A
+A

Tempo: 128bpm
4/4

Intro/First Verse


e|----------------------------|
b|----------------------------|
g|--2-3-2---2--2--2--2-3-3-2--|
d|--3-3-3---3--3--3--3-3-3-3--|
a|--3-3-3---3--3--3--3-3-3-3--|
e|----------------------------|

e|----------------------------|
b|----------------------------|
g|--7-8-7---7--7--7--7-8-8-7--|
d|--8-8-8---8--8--8--8-8-8-8--|
a|--8-8-8---8--8--8--8-8-8-8--|
e|----------------------------|


Pre-Chorus (3 Bars - 3/4,3/4 & 2/4)


     3/4     3/4      2/4
e|--------|--------|-------|
b|--------|--------|-------|
g|--8--7--|--8--7--|--8-7--|
d|--------|--------|-------|
a|--------|--------|-------|
e|--------|--------|-------|


Chorus


e|----------------------------|
b|----------------------------|
g|--7-8-7---7--7--7--7-8-8-7--|
d|--8-8-8---8--8--8--8-8-8-8--|
a|--8-8-8---8--8--8--8-8-8-8--|
e|----------------------------|

e|--------------------------------------|
b|--------------------------------------|
g|--10-10-10---10--10--10--10-10-10-10--|
d|--10-10-10---10--10--10--10-10-10-10--|
a|--12-12-12---12--12--12--12-12-12-12--|
e|--------------------------------------|

e|----------------------------|
b|----------------------------|
g|--3-3-3---3--3--3--3-3-3-3--|
d|--5-5-5---5--5--5--5-5-5-5--|
a|--5-5-5---5--5--5--5-5-5-5--|
e|----------------------------|

e|-------------------------|------------|
b|-------------------------|------------|
g|--10-10-10---10--10--10--|--3----2----|
d|--10-10-10---10--10--10--|--3----3----|
a|--12-12-12---12--12--12--|--3----3----|
e|-------------------------|------------|

Mmmm yeah thats a pretty crap tab actually but thats the basic outline, just download 
guitar pro tab its pretty accurate

Video Clip de Disco 2000


ACORDES PARA GUITARRA

PIANO UKELELE


TOP 20: Las más tocadas de Pulp


Toca una Canción al Azar de Pulp

Acordes

Cerrar

18.11

x

118