Enamorar

Raffy Burgos

Acordes

Subida por Gustavo


Más Versiones
Ver. 2

Cambiar Cifrado
Americano Latino

Cambiar Tonalidad
-1 +1

Partir Pantalla Imprimir FAQ

+A
-A
Cm (x-x-10-8-8-x)     C# (x-x-6-6-6-x)
G (x-x-9-7-8-x) A# (x-x-8-7-6-x)
D# (x-x-13-12-11-x) B dim (x-x-x-7-6-7)
A# II (x-x-12-10-11-x) G# (x-x-10-8-9-x)

Poner Capo en cuarto sastre

Intro
||--------8—6h8p6--------------6—0h6p0---------||
||------8----------8p6p0-----6---------6p0-----||
||---8--------------------7-----------------5--||
||---------------------------------------------||
||---------------------------------------------||
||---------------------------------------------||

* Dos veces
||-------0---0h6p0------------------6-6-6----6-----||
||----0-------------6p0-----6-----6-------6--------||
||--5---------------------7-----7------------------||
||-------------------------------------------------||
||-------------------------------------------------||
||-------------------------------------------------||


*tocar esta parte la segunda vez
B dim Cm
||---7~~--7----------------------------------------------||
||---6~~--6------8--6--------------------8------8------8-||
||---7~~--7-------------8--7---------8------8------8-----||
||-------------------------------10-----10---------------||
||-------------------------------------------------------||
||-------------------------------------------------------||




Cm
Enamorarte es imposible aunque digas muchas cosas
C#
cuando estas conmigo
Cm
Yo quisiera atraerte, yo quisiera convencerte
C#
Pero tu siempre me tomas como amigo

Pre Coro
Cm G Cm
Y cada vez lo pones mas dificil
G Cm
Y cada vez me haces sufrir mas

Pero yo sigo mi empeño
A#
Porque quiero ser tu dueño
G Cm
Y te tengo que enamorar

Coro
D# A# II G#
(Enamorar, enamorar) te quiero vida mia
G
y no me hagas esperar
D# A# II G#
(Enamorar, enamorar) te ofresco el corazon
G Cm
no me hagas sufrir mas… no me hagas sufrir mas
sl sl sl dos veces
||----------------------------------------------------------------||
||---/8-8h9--8--9/11—6~---6-8-6--8/9----------6--8-8---6-----6~~--||
||------------------------------------8---8----------------8------||
||----------------------------------------------------------------||
||----------------------------------------------------------------||
||----------------------------------------------------------------||

||------------------------------------------------------------||
||--h8-8p6------------8------8--9--9p8--------------||
||----------8-----8----------------------9-----------||
||------------10---------10-----------------10-------||
||------------------------------------------------------------||
||------------------------------------------------------------||

Cm
Cada vez que tu me miras
C#
yo me animo a decirte vida mia, cuanto te quiero
Cm
porque te pones tan seria si mi amor es una feria
C#
y me quita la ilucion de ser tu dueño
Cm G Cm
Y cada vez lo pones mas dificil
G Cm
Y cada vez me haces sufrir mas

Pero yo sigo mi empeño
A#
Porque quiero ser tu dueño
G Cm
Y te tengo que enamorar

Coro

Intro y solo

Pre Coro

Coro

y despues el solo y el intro para terminar



Transcripcion hecha por Sal Joya y Javier Medina.
Si tienen sugerencias mande e-mail a [email protected]
con “cancion” bajo la linea sujeta o si tienen otras canciones
de bachata.


NUEVO FORO DE MÚSICA

¿Tienes alguna duda, consulta, pregunta, consejo o algo para compartir sobre esta canción?

¡Puedes abrir un hilo en el FORO para que la comunidad te ayude! Hacer una pregunta

ACORDES PARA GUITARRA

PIANO UKELELE
Cm
C#
G
A#
D#
B
G#


Las más tocadas de Raffy Burgos

Cm
C#
G
A#
D#
B
G#