Comando X (Acordes)

Régulo Caro

Subida por Solmar1089

Compartir


Imprimir FAQ
+A
-A

Texto

Desplazamiento

Transportador

Color de Fondo

Archivos

-A
+A
LA
6|--5--|-----|-----|
5|--5--|-----|--7--|
4|--5--|-----|--7--|
3|--5--|--6--|-----|
2|--5--|-----|-----|
1|--5--|-----|-----|
DO#m
6|--4--|-----|-----|
5|--4--|-----|-----|
4|--4--|-----|--6--|
3|--4--|-----|--6--|
2|--4--|--5--|-----|
1|--4--|-----|-----|

RE
6|-----|-----|-----|-----
5|-----|--5--|-----|-----
4|--4--|-----|-----|-----
3|-----|-----|-----|--7--
2|-----|-----|-----|-----
1|-----|-----|-----|-----
MI
6|-----|-----|-----|-----
5|-----|--7--|-----|-----
4|--6--|-----|-----|-----
3|-----|-----|-----|--9--
2|-----|-----|-----|-----
1|-----|-----|-----|-----




LA
Llego el comboi
               DO#m
Con dos R’s se bajo
RE               MI
El senor de la milicia
RE         MI   LA
Iva ver a otro señor
      RE             MI   RE-MI
De urgencia fue la llamada
   RE      MI      LA
Y esto fue lo que paso.

LA
Camaflujeados
                  DO#m
Toda la gente del chapo
RE         MI
En H1 blindado
RE   MI  RE  MI         LA
Seis trokes llenos de guachos
RE               MI
Al señor ban escoltando
RE          MI     LA
No debe de haber error.

LA
Llego ISMAEL
                DO#m
Detras se baja MANUEL
RE                   MI
Junto con el MACHO PRIETO
RE MI RE   MI        LA
De un boludo grande negro
RE                   MI
ANTRAX cuidando el terreno
RE    MI     LA
Y la junta comenzo.

LA
Al grono boi
                  DO#m
Compadre esto ya exploto
RE                MI
Ya se nos estan metiendo
RE   MI   RE  MI   LA
Busquemos la solucion
  RE                MI
Uniremos nuestras fuerzas
                LA
Crearemos un batallon.

LA
De acuerdo estoy
               DO#m
Vengo a pedir pocision
RE                  MI
Miltrecientos tira balas
RE   MI   RE MI     LA
Civiles pa el escuadron
RE                MI
Y un sinfín de granadas
                     LA
Cartuchos mas de un millon.


LA
FANTASMA y MACHO
              DO#m
Ustedes son ecargados
RE                 MI
Dos fiele brazos armados
RE   MI    RE MI   LA
Formarmarian un comando
RE             MI
Todo bien estructurado
               LA
Entraremos en acion.


Video Clip de Comando X


ACORDES PARA GUITARRA

PIANO UKELELE
A
C#m
D
E


TOP 20: Las más tocadas de Régulo Caro


Acordes

Cerrar
A
C#m
D
E

19.09

x

72