Falta de respeto (Acordes)

Régulo Caro

Subida por Elmas

Compartir


Cambiar Cifrado
Americano Latino

Cambiar Tonalidad
-1 +1
Imprimir FAQ
+A
-A

Texto

Desplazamiento

Transportador

Color de Fondo

Archivos

-A
+A
              C#                  A#m          Fm        G#
1.-------------------------------------------9-8~~-----------
2.---------------9-----------------------11-------/11--9----
3.------6-8--8/10-----10p86--5------6~----------------------
4.---/6--------------------------6/8-------------------------
5.-----------------------------------------------------------
6.-----------------------------------------------------------

          C#          A#m
Pero que falta de respeto,
         Fm             G#
haces de mi lo que quieres
         C#            A#m
porque sabes que te espero
          Fm            G#
sabes que tú, tú me tienes.
       C#            A#m
Una cosa lleva a la otra
          Fm           G#
y vengo a ti con mis mieles
C#          A#m             Fm   G#
lo mejor de mi , tu dueña eres


       C#               A#m
Tus miradas agitan mi calma
             Fm            G#
me hacen sentir que me quieres,
      C#               A#m
eres un diamante brillante
           Fm              G#
que luce a mi, cuando quiere.
     C#          A#m
Esa cosa inalcanzable
            Fm        G#
que hace de mi una leve
     C#        A#m        Fm   G#
obsesión de poder sostenerte.


D#m          A#m     D#m
Tu vienes y vas, me besas
               F#   G#
y luego te olvidas


C#                A#m               Fm  G#
juegas con las mareas que viven en mi,
    C#                A#m            Fm  G#
aquellas que te demuestran este sentir
     C#             A#m              Fm   G#
y luego te vas por ahí, ya no se de ti
   C#           A#m       Fm   G#
¿como me desprendo yo de ti?
      C#        A#m          Fm   G#
si cuando me rindo vuelves a mi

                             C#                  A#m                       Fm
1.--------4------6------8----9~-----11---9---8---6~-----------9-9--8--------
2.----------------------------------13---11--9---7~----9-/11---------11--9~-
3.-----/5-----/6-----/8---/10-----------------------------------------------
4.--------------------------------------------------------------------------
5.--------------------------------------------------------------------------
6.--------------------------------------------------------------------------

          G#
1.---------11p9------------------------------------
2.---9/11-------11-11p9----------------------------
3.-----------------------10-10p8-------------------
4.---------------------------------11-11p8---------
5.------------------------------------------11-----
6.-------------------------------------------------

1.----------------------------------
2.--9p6-----------------------------
3.-------8-8p6----------------------
4.--------------8-8p6---------------
5.--------------------8-8p7-6-------
6.----------------------------9~----

      C#         A#m
Luego viene la mañana
              Fm            G#
te pierdes de mi, de mi cama
      C#              A#m
eres tan moderna que mis caricias
    Fm          G#
ya son anticuadas
     C#                A#m
con versos te aviento besos
              Fm            G#
queriendo atrapar tus miradas
      C#         A#m              Fm    G#
pero a ti te gustan las que te rechazan.


D#m          A#m
Tu vienes y vas
    D#m                 F#  G#
te alejas y luego regresas
    C#        A#m        Fm   G#
un dia te daran esa jugada
    C#        A#m           Fm  G#
venganza no sera es solo karma


  C#               A#m
juegas con las mareas
             Fm  G#
que viven en mi,
    C#                 A#m          Fm   G#
aquellas que te demuestran este sentir
    C#              A#m            Fm   G#
y luego te vas por ahí ya no se de ti
   C#            A#m      Fm  G#
¿Cómo me desprendo yo de ti?


  C#               A#m
juegas con las mareas
             Fm  G#
que viven en mi,
    C#                 A#m          Fm   G#
aquellas que te demuestran este sentir
    C#              A#m            Fm   G#
y luego te vas por ahí ya no se de ti
   C#          A#m        Fm  G#
¿Cómo me desprendo yo de ti?


   C#           A#m           G#
si cuando me rindo vuelves a mi


Video Clip de Falta de respeto


ACORDES PARA GUITARRA

PIANO UKELELE
C#
A#m
Fm
G#
D#m
F#


TOP 20: Las más tocadas de Régulo Caro


Acordes

Cerrar
C#
A#m
Fm
G#
D#m
F#

23.29

x

109