Let The Four Winds Blow (Acordes)

Robert Plant

Full Álbum: Mighty Rearranger (2005)
Subida por CarlIlich82

Compartir


Cambiar Cifrado
Americano Latino

Cambiar Tonalidad
-1 +1
Imprimir FAQ
+A
-A

Texto

Desplazamiento

Transportador

Color de Fondo

Archivos

TONALIDAD, TAMAÑO, CIFRADO, SCROL.

Nos renovamos: Ahora puedes cambiar TODO haciendo clic en ICONO de la Guitarra () que aparece en la parte inferior de esta página.


LETRA CON ACORDES

        Let the Four Winds Blow
        The Mighty Rearranger

        Standard Tuning
        Intro:
    |------------------------------|
    |------------------------------|
    |---5----------5-7p5-----------|  play 2x
    |-------5h7----------7---------|
    |-----7------------------------|
    |------------------------------|

Verse:
      Am        G
And I open my eyes
       Am             G       Am
As the sun leaves the western sky
          Am     G
Precious memory dies
      Am           G           Am
Once again you are here at my side

Am        G
Blow wind blow
            G              E5   G5    Am
Through my heart let the four winds blow

 And I'm back on the hill
|------------------------|
|------------------------|
|------------------------|
|-----2-0---0------------|
|-0-3-----3--------------|
|------------------------|

Yes you've gone but you're with me still
|------------------------|
|------------------------|
|------------------------|
|-----2-0---0-2----------|
|-0-3-----3-----3p0------|
|------------------------|

Now I'm way down the line
|------------------------|
|------------------------|
|------------------------|
|-----2-0---0------------|
|-0-3-----3--------------|
|------------------------|
Yes you're gone but you're still on my mind
|----------------------------------------|
|----------------------------------------|
|----------------------------------------|
|-----2-0---0-2--------------------------|
|-0-3-----3-----3p0--------------------0-|
|------------------------------------3---|

Am         G
Blow wind blow
            G             E5   G5    Am
Through my heart let the four winds blow
           G                                                    Am
I've been walking with strangers and talking all out of my mind
          G                                              Am
While the dogs in the manger, elusive and so hard to find
        G                                          Am
Conversations with angels, I seek the dimensional key
        G                                              E5
I been wheeling and dealing whatever will bring you to me

 " Uh uh uh uh uh uh..."
|----------------------|
|----------------------|
|--5-----5-----5-------|   Play 4x
|-----7-----7-----7----|
|----------------------|
|----------------------|

Am         G
Blow wind blow
            G             E5   G5    Am
Through my heart let the four winds blow
Am         G
Blow wind blow
            G             E5   G5    Am
Through my heart let the four winds blow

           G                                                    Am
I've been walking with strangers and talking all out of my mind
          G                                              Am
While the dogs in the manger, elusive and so hard to find
        G                                          Am
Conversations with angels, I seek the dimensional key
        G                                              E5
I been wheeling and dealing whatever will bring you to me

|-------------------|
|-------------------|
|-------------------| Play 2x
|-------------------|
|----------3--0-----|
|-1---0-------------|
then:
|----------0---------|
|----------1---------|
|----------2---------|
|----------2---------|
|----------0---------|
|-1---0--------------|

then:
" Uh uh uh uh uh uh..."
|----------------------|
|----------------------|
|--5-----5-----5-------|   Play 4x
|-----7-----7-----7----|
|----------------------|
|----------------------|

Here your just strumming the B and E string in unison
|-000000000000000000000000000000000000000000000000000000000000000000000000000|
|-55555555555555/88888888/10-10-10-10-10-10-10/11-11-11-11-11-11-11/15-15-15-|
|----------------------------------------------------------------------------|
|----------------------------------------------------------------------------|
|----------------------------------------------------------------------------|
|----------------------------------------------------------------------------|

cont'd
|-00000000000000000-15----15----15----15----15----------------|
|-18-18-18-18-18-18-18b20-18b20-18b20-18b20-18b20-------------|
|-------------------------------------------------------------|
|-------------------------------------------------------------|
|-------------------------------------------------------------|
|-------------------------------------------------------------|

and the rest of the solo ends the song
                THE END

Video Clip de Let The Four Winds Blow


ACORDES PARA GUITARRA

PIANO UKELELE


TOP 20: Las más tocadas de Robert Plant


Acordes

Cerrar

00.35

x

190