Ya no regreso contigo
Roberto Blades
Acordes

Subida por Margoth



Otras Versiones

Cambiar Cifrado
Americano Latino

Cambiar Tonalidad
-1 +1

Partir Pantalla Imprimir FAQ

Ver solo la LETRA

+A
-A
LETRA CON ACORDES
Hola amigos!!! Después de mucho tiempo, ya regresé. Ahora con este
tema del menor de los Blades, bien sabroso:

Intro:

G -------7----------------------|
D ----7-------10-------8--7---7-|(2X)
A -5--------8----8---8------7---|
E -----------------6------------|

G -------7---------------------|
D ----7-------10-------8-------|
A -5--------8----8---8------4--|
E -----------------6------5----|

G -------7----------------------|
D ----7-------10-------8--7---7-|
A -5--------8----8---8------7---|
E -----------------6------------|

Versos:

"Quiero que me dejes de querer, que te olvides que algún día,
por error fuiste mi mujer"...

G -------7-------|---7---------7----|-----5-------|---5---------
D ----7-----(2X)-|-5--------5-----5-|---5----(2X)-|-3------(2X)-
A -5-------------|--------5---------|-3-----------|------3------
E ---------------|------------------|-------------|-------------

"Que te acuestes sin tocarme, que despiertes sin mirarme, porque
yo querida amiga, ya no regreso contigo"...

G ------------|-------5------|-3---3----|---------9--|
D -5---5---5--|----3----(2X)-|---3---5--|---5-7------|
A ---5---3----|-3------------|----------|-5-----7----|
E ------------|--------------|----------|------------|

G ----------------
D ---7-7-7-7-7----
A --------------5-
E ----------------

Estribillo:

"Ya no regreso contigo" (bis)

G ----7---------|----|-----5-------|---5---------
D --5------(2X)-|-5--|---5----(2X)-|-3------(2X)-
A ------5-------|----|-3-----------|------3------
E --------------|----|-------------|-------------

"Ya no regreso contigo. Por mi lo puedo jurar!!"

G ---|-------7-------|-------9-------|------9------|-----------------
D ---|----7-----(2X)-|----9-----(2X)-|-7------(2X)-|-------8---7---7-
A -3-|-5-------------|-7-------------|----7--------|-5-5-8---8---7---
E ---|---------------|---------------|-------------|-----------------

"Quiero que me dejes de buscar, porque puede molestarle,
a quien ocupa tu lugar"...

G -------7-------|---7---------7----|-----5-------|---5---------
D ----7-----(2X)-|-5--------5-----5-|---5----(2X)-|-3------(2X)-
A -5-------------|--------5---------|-3-----------|------3------
E ---------------|------------------|-------------|-------------

"Si tu amor no me conviene, deja (2X) que otro amor estrene, porque
yo querida amiga, ya no regreso contigo"...

G ------------|-------5------|-3---3----|---------9--|
D -5---5---5--|----3----(2X)-|---3---5--|---5-7------|
A ---5---3----|-3------------|----------|-5-----7----|
E ------------|--------------|----------|------------|

G ---------9----------
D ---7---7---7----7---
A -----7--------7---5-
E --------------------

Estribillo:

"Ya no regreso contigo" (bis)

G ----7---------|----|-----5-------|---5---------
D --5------(2X)-|-5--|---5----(2X)-|-3------(2X)-
A ------5-------|----|-3-----------|------3------
E --------------|----|-------------|-------------

"Ya no regreso contigo. Por mi lo puedo jurar!!"

G ---|-------7-------|-------9-------|------9------|
D ---|----7-----(2X)-|----9-----(2X)-|-7------(2X)-|
A -3-|-5-------------|-7-------------|----7--------|
E ---|---------------|---------------|-------------|

G ---------------6-7-
D ---5-7---6-8-7-----
A -5-----7-----------
E -------------------


Coro/Montuno:

G ----7---------|----|-----5-------|---5--------|---|-------7-------
D --5------(2X)-|-5--|---5----(2X)-|-3------(2X)|---|----7-----(2X)-
A ------5-------|----|-3-----------|------3-----|-3-|-5-------------
E --------------|----|-------------|------------|---|---------------

Mambo:

G ----7----------|---5---5-------|---5---------|---|-------7-------
D --5------(2X)--|-----5----(2X)-|-3-------(2X)|---|----7------7---
A ------5-5------|-3-------------|------3-3----|-3-|-5-------5---5-
E ---------------|---------------|-------------|---|---------------

Coro/Montuno (los mismos arreglos)

Final:

G -------9-------|------9------|---------------6-7-
D ----9-----(2X)-|-7------(2X)-|---5-7---6-8-7-----
A -7-------------|----7--------|-5-----7-----------
E ---------------|-------------|-------------------

Y esta es toda la canción. No es muy difícil. Recuerden oír todas
las veces necesarias para poder llevar el ritmo. Hasta otra
oportunidad. Mientras tanto, sean felices.


ACORDES PARA GUITARRA

PIANO UKELELE


COMENTARIOS

Aún no hay comentarios,

¡escribe el primero!

Para hacer una pregunta o dejar un comentario sobre esta canción, debes estar LOGUEADO

Las canciones más tocadas de Roberto Blades

Toca una Canción al Azar de Roberto Blades

Nuestro servidor se demoró 0.02 segundos en generar esta página. Eso fue realmente muy rápido!