Déjame Vivir
Roberto Reyes
Acordes

Subida por Mario



Otras Versiones
Ver. 2

ENTRENA TU OÍDO MUSICAL CON ESTE JUEGO. ¿QUÉ ACORDE ES?. CLIC AQUÍ PARA JUGAR

Cambiar Cifrado
Americano Latino

Cambiar Tonalidad
-1 +1

Partir Pantalla Imprimir FAQ

+A
-A
LETRA CON ACORDES
ESTA CANCION ES PRECIOSA Y QUIERO DEDICARSELA A TODAS AQUELLAS MADRES:
NIÑAS O JOVENCITAS QUE POR FALTA DE MADUREZ NO PIENSAN LAS COSAS QUE HACEN
O PARA AQUELLAS QUE LES HAYA PASADO ALGO INDESEABLE COMO ES UNA VIOLACION
Y QUE TOMAN LA LLEGADA DE UN BEBE COMO UN CASTIGO DE DIOS.
OJALA Y LES GUSTE...............



INTRO:

E---------------------------------------------------------
D----------------------------------------------------------
A--0-------------------------------------------------------
G-------------------------------11-11-11-------------9-----
B------------------------12-10-9---------9-9/10-9-12-------
E----9-9-9-10-10/12-10-9-----------------------------------


E----------------------------------------------------------
D----------------------------------------------------------
A-----------------------------------------------12-11------
G-11------------11-9------------------------11-9-----------
B---10-10/12-10------12----------12---12-10----------------
E----------------------9-9/10-9----9-----------------------


ARPEGIO
E-5------------5--------------------
A-----------------------------------
D-----------------------------------
G----6-------6----6-------6---------
B------5---5--------5---5-----------
E--------5------------5-------------



A C#m D E A
Hoy por la mañana ví tus lágrimas rodar,
C#m D E F#m
angustiada corrías buscando en cualquier lugar,
C#m D A G#m7 F#m7
un consejo, un amigo, alguien que te pudiera ayudar;
C#m D E A
y lamenté no ser grande madre para poderte ayudar.


C#m D E A
Presentí lo que sentías y por primera vez lloré,
C#m D E F#m
al ver cómo corrías buscando en cualquier lugar,
C#m D A G#m7 F#m7
algo que no te fallara, algo seguro y mortal,
C#m D E
un veneno que en segundos me pudiera aquí matar.


F#m C#m
Y lloré, y lloré
D C#m7
como nunca imaginé
F#m C#m
yo grité: mamá
D E A
si me pudieras escuchar.


C#m Bm E A
Dejame vivir un minuto más dentro de tí mamá,
C#m Bm E
déjame estar un instante más cerca de tí
D E D E A
y ser feli-iiizz, y ser feli-iizz sólo por tí.


(Notas durante la parte hablada)
C#m-Bm-C#m7-A-C#m-Bm-C#m7-A-C#m-Bm-C#m7-A-C#m-Bm-C#m7-A-E

Parte hablada:

"Sabes una cosa mámi: ¡te quiero mucho!,
y antes de que hagas lo que has decidido hacer conmigo
te quiero confesar algo,
una noche mientras dormías,
Diosito nos visitó y me dijo
que en mí pondría toda tu belleza mamá,
tus lindos ojos, tu hermoso pelo negro,
pero sobre todo, me dijo que pondría dentro de mí
ese corazón tan puro y tierno
que tienes por dentro mamá".

F#m C#m
Y lloré, y lloré
D C#m7
como nunca imaginé
F#m C#m
yo grité: mamá
D E A
si me pudieras escuchar.


C#m Bm E A
Dejame vivir un minuto más dentro de tí mamá,
C#m Bm E
déjame estar un instante más cerca de tí
D E D E A C#m D E
y ser feli-iiizz y ser feli-iizz sólo por tiiiiiiiiiiiii
A C#m D E
sólo por tiiiiiiiiiiiii
A
tan sólo por tí

FINAL
E------------------------------------5----------------------
D--------------------------------------7--------------------
A--0-------------------------------------7------------------
G-------------------------------1----------6----------------
B------------------------12-10-9-------------5--------------
E----9-9-9-10-10/12-10-9-----------------------5------------



MAS QUE UNA CANCION, ESTA ES UNA REFLEXION PARA TODAS ESAS MADRES,
QUE COMPRENDAN QUE ESA VIDA QUE LLEVAN EN SU VIENTRE ES UNA PERSONITA
MUY ESPECIAL, UN ANGEL QUE NO TIENE LA CULPA DE LO QUE HAYA PASADO
O DE LO QUE HAYAN HECHO OTRAS PERSONAS Y QUE, COMO NOSOTROS
TAMBIEN MERECE EL REGALO MAS GRANDE QUE DIOS NOS DA:
LA VIDA..........

SALUDOS PA´MI ´AMA
TE QUIERO MUCHO...................


ACORDES PARA GUITARRA

PIANO UKELELE
A
C#m
D
E
F#m
G#m7
F#m7
C#m7
Bm
A


COMENTARIOS

Aún no hay comentarios,

¡escribe el primero!

Para hacer una pregunta o dejar un comentario sobre esta canción, debes estar LOGUEADO

Las canciones más tocadas de Roberto Reyes

Toca una Canción al Azar de Roberto Reyes
A
C#m
D
E
F#m
G#m7
F#m7
C#m7
Bm
A

Nuestro servidor se demoró 0.08 segundos en generar esta página. Eso fue realmente muy rápido!