Traición
Roberto Roena
Acordes

Subida por Claudio



Otras Versiones

Cambiar Cifrado
Americano Latino

Cambiar Tonalidad
-1 +1

Partir Pantalla Imprimir FAQ

+A
-A
LETRA CON ACORDES
Hola compatriotas bajistas salseros. Ahora les traigo
este tremendo guaguancó del "Mr. Bongó".

Intro:

G ---------------------|
D ---------------7-8---|
A -------7-8-10--------| (Riff 1)
E -8-10----------------|

G ------------------------|
D -10-8-------------------|
A -------11-10--8-10-11---| (Riff 2)
E ------------------------|

G ------------------|
D ------------------|
A -8-10-11-8-11-8---| (Riff 3)
E ----------------9-|

G ------------------|
D ------------------|
A -7-8-10-7-10-7----| (Riff 4)
E ---------------8--|

Volver a tocar los tres primeros riffs y luego:

G ------------------|
D ------------------|
A -7-8-10-7-10-7----| (Riff 5)
E ---------------8--|

G ------|
D ---8--|
A -8----| (Riff 6) (3X)
E ------|

G ----10-10-----|
D -10--------8--|
A --------------| (Riff 7) (4X)
E --------------|

G ----10-10--8-8-----------8-10---|
D -10-------------11-11-10--------|
A --------------------------------| (Riff 8)
E --------------------------------|

Canción:

"Yo te tuve en un altar, como un dios yo te adoré..."

G --------------------|
D ---8-8------8---7---|
A -8--------8---8-----| (Riff 9)
E --------6-----------|

G ----------|
D ----------|
A ---8-8-8--| (Riff 10) (2X)
E -8--------|

G --------------------------|
D ---8-8---------10-10------|
A -8---------10-------------| (Riff 11)
E --------6--------------8--|

G ---------------|
D ---------------|
A ---8-8-8---8---|
E -8-------8-----|

"Nunca pude imaginar que llegara la traición..."
(Se toca lo anteriormente escrito)

"Tu mataste mi cariño, con una cruel traición.."

G --------------------------------------------------------------|
D -8---8-9--10----10---------------------12-10-----------12-----|
A ---8---------10----10--8---8-------12--------12-----10----10--|
E -------------------------8---8--10---------------10-----------|

G -----------------------------------------------------------------|
D -------12-10-----------12-----------12-----------------10-----10-|
A ----10-------12----10-----10-----10----10----10-----10-----10----|
E -10-------------10------------10----------10-----8---------------|

Luego se toca el principio de la canción. Y cuando
se cante "llorarás igual que yo":

G -------|
D ---10--|
A -8-----| (Rápidamente tocar por 5 veces)
E -------|

G ------------------|
D -11-11-11-11--10--|
A ------------------|
E ------------------|

Coro

"LLorarás igual que yo..."

G --------10--8--------------------------------|
D ----10--------8--11-10----10-----------------|
A -8---------------------10---------------7-8--| (6 X)
E -------------------------------8-8--10-------|

Luego:

G ---------------------------------------------|
D ---10--------13----------12--------11--------|
A -8----8--11------11--10-----10--9------9--8--| (8 X)
E ---------------------------------------------|


G -------|
D ---10--|
A -8-----| (Rápidamente tocar por 5 veces)
E -------|

G ------------------|
D -11-11-11-11--10--|
A ------------------|
E ------------------|

Coro/Solo de metales (los mismos arreglos que el coro)

Para la descarga final:

G -----10-10-----|
D --10-----------|
A ------------8--| (Tocar hasta el final)
E ---------------|


Final (a libre albedrío)

Esta es toda la canción. Se recomienda (una vez más)
que se debe oir la canción varias veces para llevar el ritmo.
Felices fiestas y ¡¡¡HASTA LA PRÓXIMA!!! Cuídense Mucho.


ACORDES PARA GUITARRA

PIANO UKELELE


COMENTARIOS

Aún no hay comentarios,

¡escribe el primero!

Para hacer una pregunta o dejar un comentario sobre esta canción, debes estar LOGUEADO

Las canciones más tocadas de Roberto Roena

Toca una Canción al Azar de Roberto Roena

Nuestro servidor se demoró 0.01 segundos en generar esta página. Eso fue realmente muy rápido!