Lili
Rock Rocket
Acordes

Subida por icaro277
Álbum: Por um Rock and Roll Mais Alcoólatra e Inconseqüente ( 2004)



Cambiar Cifrado
Americano Latino

Cambiar Tonalidad
-1 +1

Partir Pantalla Imprimir FAQ

+A
-A
Mudar para Português

Ver solo la LETRA
 E G A B  E D A B 2x
E |----------------------------------10---=10--------------------------------
B |-----12^-----10--10--10-------12^---12^---12^--12-12-12-12-11-10----------
G |---------------12--12--12^---------------------------------------12^---9--
D |--------------------------------------------------------------------------
A |--------------------------------------------------------------------------
E |--------------------------------------------------------------------------

E G A B E D A B
Quando eu te vi pra trás eu quase cai
E G A B E D A B
Fui perguntar seu nome e descobri que era lili
E G A B
Pensei que nome lindo, Será que é francesa,
E G A B C
Tudo que eu quero é você pra minha princesa

E G A B E D A B 2x
E |------------------------------------------------------------------
B |------------------------------------------------------------------
G |--------------------------------------------------14--------------
D |----14--14--12-----12-----12---12-----12-13-14^-------14^----14^--
A |----------------14------14----14----14----------------------------
E |------------------------------------------------------------------

E |-------------------------------------------------------
B |--------------------------------------------10---------
G |------------------------7----7--7--7-8-9^-----9^---9^--
D |----------5-5---7-7---9-----9--9--9--------------------
A |----7-7------------------------------------------------
E |-------------------------------------------------------

E G A B
Pensei que nome lindo, Será que é francesa
E G A B C D C D C D C D
Tudo que eu quero é você pra minha princesa

E G A B E D A B
Quando eu te vi pra trás eu quase cai
E G A B E D A B
Fui perguntar seu nome e descobri que era lili
E G A B
Pensei que nome lindo, Será que é francesa,
E G A B C
Tudo que eu quero é você para minha princesa

E G A B E D A B 2x (só o baixo e a bateria)

E G A B
Pensei que nome lindo Será que é francesa
E G A B C
Tudo que eu quero é você para minha princesa
E G A B E
quando eu te vi pra trás eu quase cai

ACORDES PARA GUITARRA

PIANO UKELELE
E
G
A
B
D
C


COMENTARIOS

Aún no hay comentarios,

¡escribe el primero!

Escribe una pregunta, duda o comentario sobre esta canción, te responderemos a la brevedad.

Las más tocadas de Rock Rocket

Toca una Canción al Azar de Rock Rocket
E
G
A
B
D
C