Quiero ser tu sombra (Acordes)

Rodolfo Ruiz

Subida por Jairohm

Compartir


Cambiar Cifrado
Americano Latino

Cambiar Tonalidad
-1 +1
Imprimir FAQ
+A
-A

Texto

Desplazamiento

Transportador

Color de Fondo

Archivos

-A
+A
Si queres hacer dos guitarras en este tema. La canción se toca con ritmo de vals
mientras se hace el punteo la otra guitarra toca el rasguido.


el ritmo de vals se toca asi:       
                                    ^  ^
                              e-----0--0--| Repitiendo esto
                              B-----0--0--|
                              G-----0--0--| e, B y G se tocan las tres al mismo tiempo   
                              D-----------| para abajo con el acorde que uno quiera.
                              A--0--------|
                              E-----------|


   LAm          LAm           LAm          LAm         LAm | SOL          SOL       

e------------------8-|----8-----8-----8/10--10--8--7--6--7-|----------------7--|
B---5--6--5--4--5----|-5-----5-----5-----------------------|-5--6--5--4--5-----|
G--------------------|-------------------------------------|-------------------|
D--------------------|-------------------------------------|-------------------|
A--------------------|-------------------------------------|-------------------|
E--------------------|-------------------------------------|-------------------|

   SOL              SOL           SOL | DO         DO          DO            DO            DO

e------7-----7-----7/8--8--7--5--4--5-|----------------5-|----5-----5-----6--6--5--3--1--3--|
B---5-----5-----5---------------------|-5--6--5--4--5----|-5-----5-----5--------------------|
G-------------------------------------|------------------|----------------------------------|
D-------------------------------------|------------------|----------------------------------|
A-------------------------------------|------------------|----------------------------------|
E-------------------------------------|------------------|----------------------------------|

Si estas tocando a dos guitarras la segunda guitarra también hace este punteo 

e---1--0-----------------------------1--0-----------------0--5--|
B---------3--1--0-----------0--1--3--------3--1--0-----1--------|
G------------------2--1--2--------------------------2-----------|
D---------------------------------------------------------------|
A---------------------------------------------------------------|
E---------------------------------------------------------------|

e------------------8/12-|-12--10--0-|-12--10--0-|-12--10--0-|-12--10--0--| 
B---5--6--5--4--5-------|------------------------------------------------|
G-----------------------|------------------------------------------------|
D-----------------------|------------------------------------------------|
A-----------------------|------------------------------------------------|
E-----------------------|------------------------------------------------|

e---10--8--0-|-10--8--0-|-10--8--0-|-10--8--0--|--8--7--0-|-8--7--0-|-8--7--0-|-8--7--0--|
B----------------------------------------------|-----------------------------------------|
G----------------------------------------------|-----------------------------------------|
D----------------------------------------------|-----------------------------------------|
A----------------------------------------------|-----------------------------------------|
E----------------------------------------------|-----------------------------------------|

e---7--5--0-|-7--5--0-|-7--5--0-|-7--5--0--|--5--3--0-|-5--3--0-|-5--3--0-|--5--3--0--|
B------------------------------------------|------------------------------------------|
G------------------------------------------|------------------------------------------|
D------------------------------------------|------------------------------------------|
A------------------------------------------|------------------------------------------|
E------------------------------------------|------------------------------------------|

e---5--3--3/1--1--|--1--0-----------------------------1--0-----------------0--5--|
B-----------------|--------3--1--0-----------0--1--3--------3--1--0-----1--------|
G-----------------|-----------------2--1--2--------------------------2-----------|
D-----------------|--------------------------------------------------------------|
A-----------------|--------------------------------------------------------------|
E-----------------|--------------------------------------------------------------|

Esta parte se repite cada vez mas rápido hasta el final de la canción.
Para esto te aconsejo que utilices una pua haciendo un movimiento asi:

e-/--/--/--| Abajo-Arriba-Abajo

e------------------8/12-|-12--10--0-|-12--10--0-|-12--10--0-|-12--10--0--| 
B---5--6--5--4--5-------|------------------------------------------------|
G-----------------------|------------------------------------------------|
D-----------------------|------------------------------------------------|
A-----------------------|------------------------------------------------|
E-----------------------|------------------------------------------------|

e---10--8--0-|-10--8--0-|-10--8--0-|-10--8--0--|--8--7--0-|-8--7--0-|-8--7--0-|-8--7--0--|
B----------------------------------------------|-----------------------------------------|
G----------------------------------------------|-----------------------------------------|
D----------------------------------------------|-----------------------------------------|
A----------------------------------------------|-----------------------------------------|
E----------------------------------------------|-----------------------------------------|

e---7--5--0-|-7--5--0-|-7--5--0-|-7--5--0--|--5--3--0-|-5--3--0-|-5--3--0-|--5--3--0--|
B------------------------------------------|------------------------------------------|
G------------------------------------------|------------------------------------------|
D------------------------------------------|------------------------------------------|
A------------------------------------------|------------------------------------------|
E------------------------------------------|------------------------------------------|

e---5--3--3/1--1--|--1--0-----------------------------1--0-----------------0--5--|
B-----------------|--------3--1--0-----------0--1--3--------3--1--0-----1--------|
G-----------------|-----------------2--1--2--------------------------2-----------|
D-----------------|--------------------------------------------------------------|
A-----------------|--------------------------------------------------------------|
E-----------------|--------------------------------------------------------------|

Mas rápido

e------------------8/12-|-12--10--0-|-12--10--0-|-12--10--0-|-12--10--0--| 
B---5--6--5--4--5-------|------------------------------------------------|
G-----------------------|------------------------------------------------|
D-----------------------|------------------------------------------------|
A-----------------------|------------------------------------------------|
E-----------------------|------------------------------------------------|

e---10--8--0-|-10--8--0-|-10--8--0-|-10--8--0--|--8--7--0-|-8--7--0-|-8--7--0-|-8--7--0--|
B----------------------------------------------|-----------------------------------------|
G----------------------------------------------|-----------------------------------------|
D----------------------------------------------|-----------------------------------------|
A----------------------------------------------|-----------------------------------------|
E----------------------------------------------|-----------------------------------------|

e---7--5--0-|-7--5--0-|-7--5--0-|-7--5--0--|--5--3--0-|-5--3--0-|-5--3--0-|--5--3--0--|
B------------------------------------------|------------------------------------------|
G------------------------------------------|------------------------------------------|
D------------------------------------------|------------------------------------------|
A------------------------------------------|------------------------------------------|
E------------------------------------------|------------------------------------------|

e---5--3--3/1--1--|--1--0-----------------------------1--0-----------------0--5--|
B-----------------|--------3--1--0-----------0--1--3--------3--1--0-----1--------|
G-----------------|-----------------2--1--2--------------------------2-----------|
D-----------------|--------------------------------------------------------------|
A-----------------|--------------------------------------------------------------|
E-----------------|--------------------------------------------------------------|

Mas rápido

e------------------8/12-|-12--10--0-|-12--10--0-|-12--10--0-|-12--10--0--| 
B---5--6--5--4--5-------|------------------------------------------------|
G-----------------------|------------------------------------------------|
D-----------------------|------------------------------------------------|
A-----------------------|------------------------------------------------|
E-----------------------|------------------------------------------------|

e---10--8--0-|-10--8--0-|-10--8--0-|-10--8--0--|--8--7--0-|-8--7--0-|-8--7--0-|-8--7--0--|
B----------------------------------------------|-----------------------------------------|
G----------------------------------------------|-----------------------------------------|
D----------------------------------------------|-----------------------------------------|
A----------------------------------------------|-----------------------------------------|
E----------------------------------------------|-----------------------------------------|

e---7--5--0-|-7--5--0-|-7--5--0-|-7--5--0--|--5--3--0-|-5--3--0-|-5--3--0-|--5--3--0--|
B------------------------------------------|------------------------------------------|
G------------------------------------------|------------------------------------------|
D------------------------------------------|------------------------------------------|
A------------------------------------------|------------------------------------------|
E------------------------------------------|------------------------------------------|

e---5--3--3/1--1--|--1--0-----------------------------1--0-----------------0--5--|
B-----------------|--------3--1--0-----------0--1--3--------3--1--0-----1--------|
G-----------------|-----------------2--1--2--------------------------2-----------|
D-----------------|--------------------------------------------------------------|
A-----------------|--------------------------------------------------------------|
E-----------------|--------------------------------------------------------------|


Video Clip de Quiero ser tu sombra


ACORDES PARA GUITARRA

PIANO UKELELE
B
E
Am
G
C


TOP 20: Las más tocadas de Rodolfo Ruiz


Acordes

Cerrar
B
E
Am
G
C

23.52

x

160