Mother
Roger Waters
Acordes

Subida por camilo877


Más Versiones
Ver. 2

HERRAMIENTAS

Cambiar Cifrado
Americano Latino

Cambiar Tonalidad
-1 +1

Partir Pantalla Imprimir FAQ

+A
-A

LETRA CON ACORDES

¿Tu Guitarra esta Afinada? PRUEBA NUESTRO NUEVO AFINADOR

	  

Intro:
G C/G G C/G
G C/G D C/G G

hide this tabHide tab
Solo tab:
e|------------------------------------------------------------------|
B|-----13b-13b-13p12-13---------------------------------------------|
G|--12--------------------------------5---5p4-----------------------|
D|----------------------14p13-14------------------------------------|
A|-------------------------------2/7----7------5---3/2-3-3b-3-------|
E|------------------------------------------------------------------|

e|--------------------------------------------10-12b-10-8-10b-8-----|
B|------------------------------13------------10--------9-----------|
G|-------12h14-14b-14b-14-14p12---------------11--------9-----------|
D|--3/14----------------------------14p13-14------------------------|
A|------------------------------------------------------------------|
E|------------------------------------------------------------------|

e|-8p7-8p7----------------------------------------------------------|
B|----------8-------------------------------------------------------|
G|-------------7-5/4------------------------------------------------|
D|-------------------5----------------------------------------------|
A|------------------------------------------------------------------|
E|------------------------------------------------------------------|tab

G C/G G
Mother do you think they'll drop the bomb
C/G G
Mother do you think they'll like this song
C/G G
Mother do you think they'll try to break my balls
D C/G G
Oooh, Mother should I build the wall

G C/G G
Mother should I run for President
C/G G
Mother should I trust the government
C/G G
Momma will they put me in the firing line
D C/G G
Oooh, is it just a waste of time

G C/G
Hush now baby, baby don't you cry
F C/G
Mommas gonna make all of your nightmares come true
F C/G
Mommas gonna put all of her fears into you
F C/G
Mommas gonna keep you right here under her
F C/G
She won't let you fly but she might let you sing
F C/G G
Mommas gonna keep baby cozy and warm
D C/G D C/G D
Oooh babe, oooh babe, oooh babe
C/G G
Of course Mommas gonna help build the wall

C/G G C/G
G C/G D C/G G

G C/G G
Mother do you think she's good enough for me
C/G G
Mother do you think she's dangerous to me
C/G G
Momma will she tear your little boy apart
D C/G G
Oooh, Mother will she break my heart

G C/G
Hush now baby, baby don't you cry
F C/G
Mommas gonna check out all your girlfriends for you
F C/G
Momma won't let anyone dirty get through
F C/G
Mommas gonna wait up till you get
F C/G
Momma will always find out where you've been
F C/G G
Mommas gonna keep baby healthy and clean
D C/G D C/G D
Oooh babe, oooh babe, oooh babe
C/G G
You'll always be baby to me

G C/G
Mother did it need to be so high

////////////////// ¿Te Animas? Sube una canción a este sitio. //////////////////

ACORDES PARA GUITARRA

PIANO UKELELE
G
C/G
D
F


COMENTARIOS

Aún no hay comentarios,

¡escribe el primero!

Escribe una pregunta, duda o comentario sobre esta canción, te responderemos a la brevedad.

Las canciones más tocadas de Roger Waters

Toca una Canción al Azar de Roger Waters
G
C/G
D
F

06.10


Nuestro servidor se demoró 0.19 segundos en generar esta página. Eso fue realmente muy rápido!