I Wouldnt Have Missed It For The World (Acordes)

Ronnie Milsap

Subida por eliasib

Compartir


Imprimir FAQ
+A
-A

Texto

Desplazamiento

Transportador

Color de Fondo

Archivos

-A
+A
I Wouldn't Have Missed It For The World
By:  Ronnie Milsap

Key of G                  


[Intro Solo] (x2)
            

   G       C
e|----------------------------|
B|-------0-----3--------------|
G|-0-0-2---0------------------|
D|-----------2----------------|
A|----------------------------|
E|----------------------------|


[Verse 1]

C                          G
Our paths may never cross again
Em                         G
Maybe my heart will never mend
Em
But I'm glad for all the good times
C
'Cause you brought me so much sunshine
Am                           D  C  Bm  D
Love was the best it's ever been


[Chorus]

G                C                Am7
I wouldn't have missed it for the world
                D       Bm     Em
Wouldn't have missed loving you girl
                G               C      `       D
You've made my whole life worth while, with your smile
G          C            Am7           D      Bm     Em
I wouldn't trade one memory, cause you mean too much to me
     G                  C  D
Even though I lost you girl
 N.C.                        G
I wouldn't have missed it for the world


[Intro Solo] (x2)
            

   G       C
e|----------------------------|
B|-------0-----3--------------|
G|-0-0-2---0------------------|
D|-----------2----------------|
A|----------------------------|
E|----------------------------|


[Verse 2]

C                                  G
They say that all good things must end
Em                                G
Love comes and goes just like the wind
Em
You've got your dreeams to follow
C
But if I had the chance tomorrow
Am                      D  C  Bm  D
You know I'd do it all again.


[Chorus]

G                C                Am7
I wouldn't have missed it for the world
                D       Bm     Em
Wouldn't have missed loving you girl
                G               C      `       D
You've made my whole life worth while, with your smile
G          C            Am7           D      Bm     Em
I wouldn't trade one memory, cause you mean too much to me
     G                  C  D
Even though I lost you girl
 N.C.                        G
I wouldn't have missed it for the world


[Solo]

   G     C     Am7     D       Bm           Em               G
e|-----------------------5(6)(5)---10(11)(10)-7----------12-14-15-14(15)(14)-|
B|---------5---------------------7--------------8-13(14)---------------------|
G|-4-5-7-7---5-4-5---4-5-----------------------------------------------------|
D|-----------------7---------------------------------------------------------|
A|---------------------------------------------------------------------------|
E|---------------------------------------------------------------------------|

         Am       D
e|-------------------|
B|-12-------12-------|
G|----14-12----12----|
D|----------------12-|
A|-------------------|
E|-------------------|


[Outro]

G          C            Am7           D      Bm     Em
I wouldn't trade one memory, cause you mean too much to me
     G                  C  D
Even though I lost you girl
 N.C.                        G
I wouldn't have missed it for the world


************************************

| (n)  Ghost note

************************************

Video Clip de I Wouldnt Have Missed It For The World


ACORDES PARA GUITARRA

PIANO UKELELE
G
C
Em
Am
D
Bm
Am7


TOP 20: Las más tocadas de Ronnie Milsap


Acordes

Cerrar
G
C
Em
Am
D
Bm
Am7

21.06

x

380